  0
SECTION
  2
HEADER
  9
$ACADVER
  1
AC1004
  9
$ANGBASE
 50
0.0000000000
  9
$ANGDIR
 70
     0
  9
$ATTDIA
 70
     0
  9
$ATTMODE
 70
     1
  9
$ATTREQ
 70
     1
  9
$AUNITS
 70
     0
  9
$AUPREC
 70
     0
  9
$AXISMODE
 70
     0
  9
$AXISUNIT
 10
0.0000000000
 20
0.0000000000
  9
$BLIPMODE
 70
     1
  9
$CECOLOR
 62
   256
  9
$CELTYPE
  6
BYLAYER
  9
$CHAMFERA
 40
0.0000000000
  9
$CHAMFERB
 40
0.0000000000
  9
$CLAYER
  8
0
  9
$COORDS
 70
     0
  9
$DIMALT
 70
     0
  9
$DIMALTD
 70
     2
  9
$DIMALTF
 40
25.4000000000
  9
$DIMAPOST
  1

  9
$DIMASO
 70
     1
  9
$DIMASZ
 40
1.9727878460
  9
$DIMBLK
  1

  9
$DIMBLK1
  1

  9
$DIMBLK2
  1

  9
$DIMCEN
 40
9.0000000000E-02
  9
$DIMDLE
 40
0.0000000000
  9
$DIMDLI
 40
0.3800000000
  9
$DIMEXE
 40
3.8099999428
  9
$DIMEXO
 40
2.5399999619
  9
$DIMLFAC
 40
1.0000000000
  9
$DIMLIM
 70
     0
  9
$DIMPOST
  1

  9
$DIMRND
 40
0.0000000000
  9
$DIMSCALE
 40
1.0000000000
  9
$DIMSE1
 70
     0
  9
$DIMSE2
 70
     0
  9
$DIMSHO
 70
     0
  9
$DIMTAD
 70
     0
  9
$DIMTIH
 70
     0
  9
$DIMTM
 40
0.0000000000
  9
$DIMTOH
 70
     1
  9
$DIMTOL
 70
     0
  9
$DIMTP
 40
0.0000000000
  9
$DIMTSZ
 40
0.0000000000
  9
$DIMTXT
 40
2.9999940395
  9
$DIMZIN
 70
     0
  9
$DRAGMODE
 70
     1
  9
$ELEVATION
 40
0.0000000000
  9
$EXTMAX
 10
3.1750000000
 20
202.1750000000
 30
0.0000000000
  9
$EXTMIN
 10
-178.0486724854
 20
-3.1750000000
 30
0.0000000000
  9
$FASTZOOM
 70
     1
  9
$FILLETRAD
 40
6.2500000000E-02
  9
$FILLMODE
 70
     1
  9
$GRIDMODE
 70
     0
  9
$GRIDUNIT
 10
0.0000000000
 20
0.0000000000
  9
$INSBASE
 10
0.0000000000
 20
0.0000000000
 30
0.0000000000
  9
$LIMCHECK
 70
     0
  9
$LIMMAX
 10
3.1750000000
 20
202.1750000000
  9
$LIMMIN
 10
-178.0486724854
 20
-3.1750000000
  9
$LTSCALE
 40
1.0000000000
  9
$LUNITS
 70
     2
  9
$LUPREC
 70
     3
  9
$MEASUREMENT
 70
     0
  9
$MENU
  1
ACAD
  9
$MIRRTEXT
 70
     0
  9
$ORTHOMODE
 70
     0
  9
$OSMODE
 70
     0
  9
$PDMODE
 70
     0
  9
$PDSIZE
 40
0.0000000000
  9
$PLINEWID
 40
0.0000000000
  9
$PROXYGRAPHICS
 70
     0
  9
$QTEXTMODE
 70
     0
  9
$REGENMODE
 70
     1
  9
$SKETCHINC
 40
0.1000000000
  9
$SKPOLY
 70
     0
  9
$SNAPANG
 50
0.0000000000
  9
$SNAPBASE
 10
0.0000000000
 20
0.0000000000
  9
$SNAPISOPAIR
 70
     0
  9
$SNAPMODE
 70
     0
  9
$SNAPSTYLE
 70
     0
  9
$SNAPUNIT
 10
1.0000000000
 20
1.0000000000
  9
$SPLFRAME
 70
     0
  9
$SPLINESEGS
 70
     8
  9
$TDCREATE
 40
2454848.5568287086
  9
$TDINDWG
 40
0.0000000000
  9
$TDUPDATE
 40
2454848.5568287086
  9
$TDUSRTIMER
 40
0.0000000000
  9
$TEXTSIZE
 40
2.9999940395
  9
$TEXTSTYLE
  7
STANDARD
  9
$THICKNESS
 40
0.0000000000
  9
$TRACEWID
 40
5.0000000000E-02
  9
$USERI1
 70
     0
  9
$USERI2
 70
     0
  9
$USERI3
 70
     0
  9
$USERI4
 70
     0
  9
$USERI5
 70
     0
  9
$USERR1
 40
0.0000000000
  9
$USERR2
 40
0.0000000000
  9
$USERR3
 40
0.0000000000
  9
$USERR4
 40
0.0000000000
  9
$USERR5
 40
0.0000000000
  9
$USRTIMER
 70
     1
  9
$VIEWCTR
 10
-87.4368362427
 20
99.5000000000
  9
$VIEWDIR
 10
0.0000000000
 20
0.0000000000
 30
1.0000000000
  9
$VIEWSIZE
 40
205.3500000000
  0
ENDSEC
  0
SECTION
  2
TABLES
  0
TABLE
  2
LTYPE
 70
     3
  0
LTYPE
  2
SOLID
  3
Solid
 70
    64
 72
    65
 73
     0
 40
0.0000000000
  0
LTYPE
  2
DASH
  3
Dash
 70
    64
 72
    65
 73
     2
 40
2.0000000000
 49
1.0000000000
 49
-1.0000000000
  0
LTYPE
  2
CENTER
  3
Center
 70
    64
 72
    65
 73
     4
 40
9.1000000238
 49
6.5000000000
 49
-0.8000000119
 49
1.0000000000
 49
-0.8000000119
  0
ENDTAB
  0
TABLE
  2
LAYER
 70
     4
  0
LAYER
  2
Layer0$C$L0
 70
     0
  6
SOLID
 62
     3
  0
LAYER
  2
Layer1$C$L1
 70
     0
  6
SOLID
 62
     3
  0
LAYER
  2
Layer6$C$L6
 70
     0
  6
SOLID
 62
    31
  0
LAYER
  2
Layer8$C$L8
 70
     0
  6
SOLID
 62
     7
  0
ENDTAB
  0
TABLE
  2
STYLE
 70
     1
  0
STYLE
  2
STANDARD
  3
txt
  4

 40
0.0000000000
 41
1.0000000000
 42
2.9999940395
 50
0.0000000000
 70
     0
 71
     0
  0
ENDTAB
  0
ENDSEC
  0
SECTION
  2
BLOCKS
  0
BLOCK
  8
Layer8$C$L8
  2
Cadra_attr_0
 70
     2
 10
0.0000000000
 20
0.0000000000
  0
TEXT
  8
Layer8$C$L8
 62
     5
 10
-66.0872999535
 20
16.0000000000
 40
5.0000000000
  1
MA4-A04359
 41
0.8595637381
 72
     5
 11
-27.4069317370
 21
16.0000000000
  0
ATTDEF
  8
Layer8$C$L8
 62
     5
 10
-46.747117
 20
18.500000
 40
0.156000
  1
  
  3

  2
20
 70
    11
  0
ENDBLK
  8
Layer8$C$L8
  0
BLOCK
  8
Layer8$C$L8
  2
Cadra_attr_1
 70
     2
 10
0.000000
 20
0.000000
  0
TEXT
  8
Layer8$C$L8
 10
-66.9250041467
 20
24.8326031771
 40
4.1671714783
  1
CW1L-M1E##Q@*
 41
0.7728228947
 72
     5
 11
-28.2791778526
 21
24.8326031771
  0
ATTDEF
  8
Layer8$C$L8
 10
-47.602091
 20
26.916189
 40
0.156000
  1
広>錆
  3

  2
10
 70
    11
  0
ENDBLK
  8
Layer8$C$L8
  0
ENDSEC
  0
SECTION
  2
ENTITIES
  0
ARC
  8
Layer1$C$L1
  6
DASH
 62
     3
 10
-67.0333532159
 20
120.7276953934
 40
0.5000000000
 50
70.0000000000
 51
160.0000000000
  0
ARC
  8
Layer0$C$L0
  6
DASH
 62
     3
 10
-61.3951974911
 20
118.6755745335
 40
0.5000000000
 50
340.0000000000
 51
430.0000000000
  0
LINE
  8
Layer0$C$L0
  6
DASH
 62
     3
 10
-61.2241874195
 20
119.1454208439
 11
-66.8623431442
 21
121.1975417038
  0
LINE
  8
Layer1$C$L1
  6
DASH
 62
     3
 10
-72.1707318491
 20
108.0747658036
 11
-67.5031995263
 21
120.8987054651
  0
LINE
  8
Layer1$C$L1
  6
DASH
 62
     3
 10
-62.5302040766
 20
114.0952673690
 11
-60.9253511808
 21
118.5045644618
  0
ARC
  8
Layer0$C$L0
 62
     3
 10
-70.8209930562
 20
121.2192315098
 40
0.5000000000
 50
45.5858639149
 51
90.0000000000
  0
LINE
  8
Layer1$C$L1
  6
DASH
 62
     3
 10
-70.3209930562
 20
116.5269555514
 11
-70.3209930562
 21
121.2192315098
  0
LINE
  8
Layer1$C$L1
  6
DASH
 62
     3
 10
-77.3209930562
 20
116.7192315098
 11
-77.3209930562
 21
121.7192315098
  0
ARC
  8
Layer0$C$L0
 62
     3
 10
-75.9201540338
 20
99.1190039185
 40
28.4999999997
 50
60.7516416621
 51
85.1490977962
  0
LINE
  8
Layer1$C$L1
 62
     3
 10
-73.5098669804
 20
127.5169483913
 11
-70.1518850675
 21
127.9715255787
  0
LINE
  8
Layer1$C$L1
 62
     3
 10
-70.8359428484
 20
126.0920048581
 11
-73.5098849099
 21
127.5168184660
  0
TEXT
  8
Layer8$C$L8
 62
     3
 10
-71.0879088336
 20
129.1963133823
 40
2.5000000000
  1
ＬＯＣＫ
 41
0.5498784786
 50
340.0000000000
 72
     5
 11
-62.0453657313
 21
125.9050968510
  0
INSERT
  8
Layer8$C$L8
 62
     5
 66
     1
  2
Cadra_attr_0
 10
0.000000
 20
0.000000
  0
ATTRIB
  8
Layer8$C$L8
 62
     5
 10
-46.747117
 20
18.500000
 40
0.156000
  1
  
  2
20
 70
    11
  0
SEQEND
  8
Layer8$C$L8
 62
     5
  0
LINE
  8
Layer0$C$L0
  6
CENTER
 62
     3
 10
-73.3209930562
 20
125.5541644790
 11
-73.3209930562
 21
69.5192315098
  0
LINE
  8
Layer0$C$L0
  6
CENTER
 62
     3
 10
-55.3209930562
 20
93.2192315098
 11
-91.3209930562
 21
93.2192315098
  0
LINE
  8
Layer0$C$L0
  6
CENTER
 62
     3
 10
-174.8736716666
 20
161.5361696463
 11
-126.4736716666
 21
161.5361696463
  0
LINE
  8
Layer0$C$L0
  6
CENTER
 62
     3
 10
-126.4736716666
 20
93.2192315098
 11
-174.8736716666
 21
93.2192315098
  0
INSERT
  8
Layer8$C$L8
 66
     1
  2
Cadra_attr_1
 10
0.000000
 20
0.000000
  0
ATTRIB
  8
Layer8$C$L8
 10
-47.602091
 20
26.916189
 40
0.156000
  1
広>錆
  2
10
 70
    11
  0
SEQEND
  8
Layer8$C$L8
  0
ARC
  8
Layer0$C$L0
 62
     3
 10
-84.7209930562
 20
76.5214918742
 40
0.3000000000
 50
180.0000000000
 51
270.0000000000
  0
ARC
  8
Layer0$C$L0
 62
     3
 10
-81.9209930562
 20
76.5214918742
 40
0.3000000000
 50
270.0000000000
 51
360.0000000000
  0
LINE
  8
Layer0$C$L0
 62
     3
 10
-81.9209930562
 20
76.2214918742
 11
-84.7209930562
 21
76.2214918742
  0
LINE
  8
Layer0$C$L0
 62
     3
 10
-88.3209930562
 20
72.8192315098
 11
-88.3209930562
 21
107.9192315098
  0
ARC
  8
Layer0$C$L0
 62
     3
 10
-88.0209930562
 20
78.3192315098
 40
0.3000000000
 50
180.0000000000
 51
228.1896851042
  0
LINE
  8
Layer0$C$L0
 62
     3
 10
-88.3209930562
 20
107.9192315098
 11
-88.3209930562
 21
113.6192315098
  0
ARC
  8
Layer0$C$L0
 62
     3
 10
-88.0209930562
 20
108.1192315098
 40
0.3000000000
 50
131.8103148958
 51
180.0000000000
  0
LINE
  8
Layer0$C$L0
 62
     3
 10
-85.4209930562
 20
102.0192315098
 11
-85.3447196000
 21
102.0192315098
  0
LINE
  8
Layer0$C$L0
 62
     3
 10
-85.4209930562
 20
84.4192315098
 11
-85.3447196000
 21
84.4192315098
  0
LINE
  8
Layer0$C$L0
 62
     3
 10
-86.9209930562
 20
75.3192315098
 11
-86.9209930562
 21
72.8192315098
  0
ARC
  8
Layer0$C$L0
 62
     3
 10
-87.2209930562
 20
72.8192315098
 40
0.3000000000
 50
270.0000000000
 51
360.0000000000
  0
ARC
  8
Layer0$C$L0
 62
     3
 10
-88.0209930562
 20
113.6192315098
 40
0.3000000000
 50
90.0000000000
 51
180.0000000000
  0
LINE
  8
Layer0$C$L0
 62
     3
 10
-86.9209930562
 20
113.6192315098
 11
-86.9209930562
 21
112.9939628606
  0
ARC
  8
Layer0$C$L0
 62
     3
 10
-87.2209930562
 20
113.6192315098
 40
0.3000000000
 50
0.0000000000
 51
90.0000000000
  0
LINE
  8
Layer0$C$L0
 62
     3
 10
-78.6209930562
 20
72.5192315098
 11
-88.0209930562
 21
72.5192315098
  0
LINE
  8
Layer0$C$L0
 62
     3
 10
-85.4663625442
 20
113.9192315098
 11
-88.0209930562
 21
113.9192315098
  0
ARC
  8
Layer0$C$L0
 62
     3
 10
-88.0209930562
 20
72.8192315098
 40
0.3000000000
 50
180.0000000000
 51
270.0000000000
  0
ARC
  8
Layer0$C$L0
 62
     3
 10
-85.9623517304
 20
73.8723410906
 40
0.9597097527
 50
87.5300745141
 51
177.2961638134
  0
LINE
  8
Layer0$C$L0
 62
     3
 10
-85.9209930562
 20
74.8311592535
 11
-80.7209930562
 21
74.8311592535
  0
LINE
  8
Layer0$C$L0
 62
     3
 10
-81.3209930562
 20
72.5192315098
 11
-81.3209930562
 21
75.3192315098
  0
ARC
  8
Layer0$C$L0
 62
     3
 10
-74.7209930562
 20
76.5192315098
 40
0.3000000000
 50
180.0000000000
 51
270.0000000000
  0
LINE
  8
Layer0$C$L0
 62
     3
 10
-71.9209930562
 20
76.2192315098
 11
-74.7209930562
 21
76.2192315098
  0
ARC
  8
Layer0$C$L0
 62
     3
 10
-71.9209930562
 20
76.5192315098
 40
0.3000000000
 50
270.0000000000
 51
360.0000000000
  0
LINE
  8
Layer0$C$L0
 62
     3
 10
-69.4209930562
 20
72.5192315098
 11
-68.6209930562
 21
72.5192315098
  0
LINE
  8
Layer0$C$L0
 62
     3
 10
-69.4209930562
 20
74.4337148566
 11
-68.6209930562
 21
74.4337148566
  0
POLYLINE
  8
Layer0$C$L0
 62
     3
 66
     1
  0
VERTEX
  8
Layer0$C$L0
 62
     3
 10
-78.0209930562
 20
74.4337148566
  0
VERTEX
  8
Layer0$C$L0
 62
     3
 10
-78.0795201528
 20
74.4374583120
  0
VERTEX
  8
Layer0$C$L0
 62
     3
 10
-78.1357980859
 20
74.4485448195
  0
VERTEX
  8
Layer0$C$L0
 62
     3
 10
-78.1876641261
 20
74.4665483306
  0
VERTEX
  8
Layer0$C$L0
 62
     3
 10
-78.2331250905
 20
74.4907769807
  0
VERTEX
  8
Layer0$C$L0
 62
     3
 10
-78.2704339399
 20
74.5202996762
  0
VERTEX
  8
Layer0$C$L0
 62
     3
 10
-78.2981569159
 20
74.5539818765
  0
VERTEX
  8
Layer0$C$L0
 62
     3
 10
-78.3152286403
 20
74.5905291936
  0
VERTEX
  8
Layer0$C$L0
 62
     3
 10
-78.3209930562
 20
74.6285371345
  0
SEQEND
  8
Layer0$C$L0
 62
     3
  0
ARC
  8
Layer0$C$L0
 62
     3
 10
-78.0209930562
 20
72.8192315098
 40
0.3000000000
 50
180.0000000000
 51
270.0000000000
  0
LINE
  8
Layer0$C$L0
 62
     3
 10
-78.3209930562
 20
72.8192315098
 11
-78.3209930562
 21
76.5192315098
  0
LINE
  8
Layer0$C$L0
 62
     3
 10
-78.0209930562
 20
72.5192315098
 11
-77.2209930562
 21
72.5192315098
  0
LINE
  8
Layer0$C$L0
 62
     3
 10
-78.0209930562
 20
74.4337148566
 11
-77.2209930562
 21
74.4337148566
  0
ARC
  8
Layer0$C$L0
 62
     3
 10
-69.4209930562
 20
72.8192315098
 40
0.3000000000
 50
180.0000000000
 51
270.0000000000
  0
LINE
  8
Layer0$C$L0
 62
     3
 10
-69.7209930562
 20
72.8192315098
 11
-69.7209930562
 21
75.3192315098
  0
POLYLINE
  8
Layer0$C$L0
 62
     3
 66
     1
  0
VERTEX
  8
Layer0$C$L0
 62
     3
 10
-69.4209930562
 20
74.4337148566
  0
VERTEX
  8
Layer0$C$L0
 62
     3
 10
-69.4795201528
 20
74.4374583120
  0
VERTEX
  8
Layer0$C$L0
 62
     3
 10
-69.5357980859
 20
74.4485448195
  0
VERTEX
  8
Layer0$C$L0
 62
     3
 10
-69.5876641261
 20
74.4665483306
  0
VERTEX
  8
Layer0$C$L0
 62
     3
 10
-69.6331250905
 20
74.4907769807
  0
VERTEX
  8
Layer0$C$L0
 62
     3
 10
-69.6704339399
 20
74.5202996762
  0
VERTEX
  8
Layer0$C$L0
 62
     3
 10
-69.6981569159
 20
74.5539818765
  0
VERTEX
  8
Layer0$C$L0
 62
     3
 10
-69.7152286403
 20
74.5905291936
  0
VERTEX
  8
Layer0$C$L0
 62
     3
 10
-69.7209930562
 20
74.6285371345
  0
SEQEND
  8
Layer0$C$L0
 62
     3
  0
LINE
  8
Layer0$C$L0
 62
     3
 10
-76.9209930562
 20
75.3192315098
 11
-76.9209930562
 21
72.8192315098
  0
POLYLINE
  8
Layer0$C$L0
 62
     3
 66
     1
  0
VERTEX
  8
Layer0$C$L0
 62
     3
 10
-76.9209930562
 20
74.6285371345
  0
VERTEX
  8
Layer0$C$L0
 62
     3
 10
-76.9255507303
 20
74.5947066010
  0
VERTEX
  8
Layer0$C$L0
 62
     3
 10
-76.9390852699
 20
74.5619039911
  0
VERTEX
  8
Layer0$C$L0
 62
     3
 10
-76.9611854350
 20
74.5311259956
  0
VERTEX
  8
Layer0$C$L0
 62
     3
 10
-76.9911797232
 20
74.5033077882
  0
VERTEX
  8
Layer0$C$L0
 62
     3
 10
-77.0281567733
 20
74.4792946111
  0
VERTEX
  8
Layer0$C$L0
 62
     3
 10
-77.0709930562
 20
74.4598160926
  0
VERTEX
  8
Layer0$C$L0
 62
     3
 10
-77.1183870132
 20
74.4454640776
  0
VERTEX
  8
Layer0$C$L0
 62
     3
 10
-77.1688986029
 20
74.4366746447
  0
VERTEX
  8
Layer0$C$L0
 62
     3
 10
-77.2209930562
 20
74.4337148566
  0
SEQEND
  8
Layer0$C$L0
 62
     3
  0
POLYLINE
  8
Layer0$C$L0
 62
     3
 66
     1
  0
VERTEX
  8
Layer0$C$L0
 62
     3
 10
-68.3209930562
 20
74.6285371345
  0
VERTEX
  8
Layer0$C$L0
 62
     3
 10
-68.3267574720
 20
74.5905291936
  0
VERTEX
  8
Layer0$C$L0
 62
     3
 10
-68.3438291964
 20
74.5539818765
  0
VERTEX
  8
Layer0$C$L0
 62
     3
 10
-68.3715521725
 20
74.5202996762
  0
VERTEX
  8
Layer0$C$L0
 62
     3
 10
-68.4088610218
 20
74.4907769807
  0
VERTEX
  8
Layer0$C$L0
 62
     3
 10
-68.4543219863
 20
74.4665483306
  0
VERTEX
  8
Layer0$C$L0
 62
     3
 10
-68.5061880265
 20
74.4485448195
  0
VERTEX
  8
Layer0$C$L0
 62
     3
 10
-68.5624659596
 20
74.4374583120
  0
VERTEX
  8
Layer0$C$L0
 62
     3
 10
-68.6209930562
 20
74.4337148566
  0
SEQEND
  8
Layer0$C$L0
 62
     3
  0
ARC
  8
Layer0$C$L0
 62
     3
 10
-68.6209930562
 20
72.8192315098
 40
0.3000000000
 50
270.0000000000
 51
360.0000000000
  0
LINE
  8
Layer0$C$L0
 62
     3
 10
-68.3209930562
 20
76.5192315098
 11
-68.3209930562
 21
72.8192315098
  0
ARC
  8
Layer0$C$L0
 62
     3
 10
-77.2209930562
 20
72.8192315098
 40
0.3000000000
 50
270.0000000000
 51
360.0000000000
  0
ARC
  8
Layer0$C$L0
 62
     3
 10
-85.2209930562
 20
102.0192315098
 40
0.2000000000
 50
180.0000000000
 51
203.9639972914
  0
LINE
  8
Layer0$C$L0
 62
     3
 10
-85.4209930562
 20
84.3541313975
 11
-85.4209930562
 21
84.4192315098
  0
ARC
  8
Layer0$C$L0
 62
     3
 10
-85.2209930562
 20
84.4192315098
 40
0.2000000000
 50
156.0360027086
 51
180.0000000000
  0
LINE
  8
Layer0$C$L0
 62
     3
 10
-85.4209930562
 20
102.0192315098
 11
-85.4209930562
 21
102.0843316220
  0
LINE
  8
Layer0$C$L0
 62
     3
 10
-79.7209930562
 20
72.8192315098
 11
-79.7209930562
 21
75.3192315098
  0
ARC
  8
Layer0$C$L0
 62
     3
 10
-79.4209930562
 20
72.8192315098
 40
0.3000000000
 50
180.0000000000
 51
270.0000000000
  0
ARC
  8
Layer0$C$L0
 62
     3
 10
-78.6209930562
 20
72.8192315098
 40
0.3000000000
 50
270.0000000000
 51
360.0000000000
  0
ARC
  8
Layer0$C$L0
 62
     3
 10
-80.6796343820
 20
73.8723410906
 40
0.9597097527
 50
2.7038361866
 51
92.4699254859
  0
LINE
  8
Layer0$C$L0
 62
     3
 10
-60.5049874382
 20
100.8192315098
 11
-60.3888625279
 21
100.8192315098
  0
LINE
  8
Layer0$C$L0
 62
     3
 10
-58.3209930562
 20
113.6192315098
 11
-58.3209930562
 21
72.8192315098
  0
ARC
  8
Layer0$C$L0
 62
     3
 10
-58.6209930562
 20
84.9192315098
 40
0.3000000000
 50
311.8103148958
 51
360.0000000000
  0
ARC
  8
Layer0$C$L0
 62
     3
 10
-58.6209930562
 20
101.5192315098
 40
0.3000000000
 50
0.0000000000
 51
48.1896851042
  0
ARC
  8
Layer0$C$L0
 62
     3
 10
-58.6209930562
 20
82.7192315098
 40
0.3000000000
 50
0.0000000000
 51
48.1896851042
  0
ARC
  8
Layer0$C$L0
 62
     3
 10
-58.6209930562
 20
78.3192315098
 40
0.3000000000
 50
311.8103148958
 51
360.0000000000
  0
LINE
  8
Layer0$C$L0
 62
     3
 10
-61.1534131818
 20
84.6192315098
 11
-61.0311598596
 21
84.6192315098
  0
ARC
  8
Layer0$C$L0
 62
     3
 10
-58.6209930562
 20
103.7192315098
 40
0.3000000000
 50
311.8103148958
 51
360.0000000000
  0
ARC
  8
Layer0$C$L0
 62
     3
 10
-58.6209930562
 20
108.1192315098
 40
0.3000000000
 50
0.0000000000
 51
48.1896851042
  0
LINE
  8
Layer0$C$L0
 62
     3
 10
-59.7209930562
 20
72.8192315098
 11
-59.7209930562
 21
75.3192315098
  0
ARC
  8
Layer0$C$L0
 62
     3
 10
-58.6209930562
 20
72.8192315098
 40
0.3000000000
 50
270.0000000000
 51
360.0000000000
  0
ARC
  8
Layer0$C$L0
 62
     3
 10
-59.4209930562
 20
72.8192315098
 40
0.3000000000
 50
180.0000000000
 51
270.0000000000
  0
LINE
  8
Layer0$C$L0
 62
     3
 10
-68.0209930562
 20
72.5192315098
 11
-58.6209930562
 21
72.5192315098
  0
ARC
  8
Layer0$C$L0
 62
     3
 10
-58.6209930562
 20
113.6192315098
 40
0.3000000000
 50
0.0000000000
 51
90.0000000000
  0
LINE
  8
Layer0$C$L0
 62
     3
 10
-59.1402982750
 20
113.9192315098
 11
-58.6209930562
 21
113.9192315098
  0
ARC
  8
Layer0$C$L0
 62
     3
 10
-60.6796343820
 20
73.8723410906
 40
0.9597097527
 50
2.7038361866
 51
92.4699254859
  0
LINE
  8
Layer0$C$L0
 62
     3
 10
-60.7209930562
 20
74.8311592535
 11
-65.9209930562
 21
74.8311592535
  0
LINE
  8
Layer0$C$L0
 62
     3
 10
-61.3209930562
 20
72.5192315098
 11
-61.3209930562
 21
75.3192315098
  0
ARC
  8
Layer0$C$L0
 62
     3
 10
-64.7209930562
 20
76.5214918742
 40
0.3000000000
 50
180.0000000000
 51
270.0000000000
  0
LINE
  8
Layer0$C$L0
 62
     3
 10
-61.9209930562
 20
76.2214918742
 11
-64.7209930562
 21
76.2214918742
  0
ARC
  8
Layer0$C$L0
 62
     3
 10
-61.9209930562
 20
76.5214918742
 40
0.3000000000
 50
270.0000000000
 51
360.0000000000
  0
LINE
  8
Layer0$C$L0
 62
     3
 10
-66.9209930562
 20
75.3192315098
 11
-66.9209930562
 21
72.8192315098
  0
ARC
  8
Layer0$C$L0
 62
     3
 10
-68.0209930562
 20
72.8192315098
 40
0.3000000000
 50
180.0000000000
 51
270.0000000000
  0
ARC
  8
Layer0$C$L0
 62
     3
 10
-67.2209930562
 20
72.8192315098
 40
0.3000000000
 50
270.0000000000
 51
360.0000000000
  0
LINE
  8
Layer0$C$L0
 62
     3
 10
-65.4546852375
 20
111.6073037660
 11
-63.4357487719
 21
111.6073037660
  0
ARC
  8
Layer0$C$L0
 62
     3
 10
-65.9623517304
 20
73.8723410906
 40
0.9597097527
 50
87.5300745141
 51
177.2961638134
  0
LINE
  8
Layer0$C$L0
 62
     3
 10
-66.2209930562
 20
113.9192315098
 11
-62.5942758894
 21
113.9192315098
  0
LINE
  8
Layer0$C$L0
 62
     3
 10
-70.3209930562
 20
113.0192315098
 11
-77.3209930562
 21
113.0192315098
  0
LINE
  8
Layer0$C$L0
 62
     3
 10
-70.8209930562
 20
121.7192315098
 11
-78.8209930562
 21
121.7192315098
  0
ARC
  8
Layer0$C$L0
  6
DASH
 62
     3
 10
-70.8209930562
 20
121.2192315098
 40
0.5000000000
 50
0.0000000000
 51
45.5858639149
  0
LINE
  8
Layer0$C$L0
 62
     3
 10
-70.3209930562
 20
107.8140936194
 11
-70.3209930562
 21
116.5247692822
  0
LINE
  8
Layer0$C$L0
 62
     3
 10
-77.3209930562
 20
116.7192315098
 11
-77.3209930562
 21
107.5722799664
  0
LINE
  8
Layer0$C$L0
 62
     3
 10
-77.3209930562
 20
108.0192315098
 11
-70.3209930562
 21
108.0192315098
  0
ARC
  8
Layer0$C$L0
 62
     3
 10
-73.3209930562
 20
93.2192315098
 40
14.9000000000
 50
105.5724328496
 51
127.2659975744
  0
ARC
  8
Layer0$C$L0
 62
     3
 10
-73.3209930562
 20
93.2192315098
 40
14.9000000000
 50
142.7332535180
 51
217.2658380820
  0
ARC
  8
Layer0$C$L0
 62
     3
 10
-73.3209930562
 20
93.2192315098
 40
14.9000000000
 50
232.7335001127
 51
307.2657149571
  0
ARC
  8
Layer0$C$L0
 62
     3
 10
-73.3209930562
 20
93.2192315098
 40
14.9000000000
 50
322.7337200138
 51
392.2859879373
  0
ARC
  8
Layer0$C$L0
 62
     3
 10
-73.3209930562
 20
93.2192315098
 40
14.9000000000
 50
47.7199027924
 51
78.3845369980
  0
ARC
  8
Layer0$C$L0
 62
     3
 10
-73.3209930561
 20
93.2192315100
 40
28.4999999997
 50
60.7516416621
 51
85.1490977962
  0
LINE
  8
Layer0$C$L0
 62
     3
 10
-59.1704519646
 20
117.4785016310
 11
-63.7856346995
 21
104.7983912810
  0
ARC
  8
Layer0$C$L0
 62
     3
 10
-61.0294735367
 20
113.8327840396
 40
0.5000000000
 50
239.1930771251
 51
340.0000000000
  0
ARC
  8
Layer0$C$L0
 62
     3
 10
-59.6402982750
 20
117.6495117027
 40
0.5000000000
 50
340.0000000000
 51
420.7516416621
  0
ARC
  8
Layer0$C$L0
 62
     3
 10
-73.3209930562
 20
93.2192315098
 40
23.5000000000
 50
59.1930771251
 51
85.0830762291
  0
LINE
  8
Layer0$C$L0
 62
     3
 10
-71.2452364453
 20
121.6435386164
 11
-70.9109445505
 21
121.6171480918
  0
LINE
  8
Layer0$C$L0
 62
     3
 10
-71.3067794938
 20
116.6327520422
 11
-71.6352066185
 21
116.6586880753
  0
ARC
  8
Layer0$C$L0
 62
     3
 10
-73.3209930562
 20
93.2192315097
 40
23.5000000000
 50
85.8863199542
 51
90.0000000000
  0
ARC
  8
Layer0$C$L0
 62
     3
 10
-73.3209930562
 20
93.2192315098
 40
28.5000000000
 50
85.8232457787
 51
90.0000000000
  0
ARC
  8
Layer0$C$L0
 62
     3
 10
-73.3209930562
 20
93.2192315097
 40
15.0000000000
 50
50.5287793655
 51
58.4630409672
  0
LINE
  8
Layer0$C$L0
 62
     3
 10
-62.5302040765
 20
114.0952673690
 11
-65.4752661964
 21
106.0037756957
  0
ARC
  8
Layer0$C$L0
 62
     3
 10
-78.8209930562
 20
121.2192315098
 40
0.5000000000
 50
90.0000000000
 51
180.0000000000
  0
ARC
  8
Layer0$C$L0
 62
     3
 10
-73.3209930562
 20
93.2192315098
 40
15.0000000000
 50
105.4660099534
 51
153.4699789820
  0
LINE
  8
Layer0$C$L0
 62
     3
 10
-77.3209930562
 20
116.7192315098
 11
-73.3209930562
 21
116.7192315098
  0
LINE
  8
Layer0$C$L0
 62
     3
 10
-79.3209930562
 20
106.9669585946
 11
-79.3209930562
 21
121.2192315098
  0
LINE
  8
Layer0$C$L0
 62
     3
 10
-59.9004863593
 20
99.9192315098
 11
-58.4209930562
 21
99.9192315098
  0
ARC
  8
Layer0$C$L0
 62
     3
 10
-73.3209930562
 20
93.2192315098
 40
16.5000000000
 50
35.6962996587
 51
52.3602986058
  0
LINE
  8
Layer0$C$L0
 62
     3
 10
-59.9209930562
 20
108.4192315098
 11
-59.9209930562
 21
102.8467961031
  0
LINE
  8
Layer0$C$L0
 62
     3
 10
-62.4677566329
 20
108.4192315098
 11
-59.9209930562
 21
108.4192315098
  0
ARC
  8
Layer0$C$L0
 62
     3
 10
-73.3209930562
 20
93.2192315098
 40
15.0000000000
 50
26.5300210180
 51
50.5287793655
  0
LINE
  8
Layer0$C$L0
 62
     3
 10
-88.2209930562
 20
99.9192315098
 11
-86.7414997530
 21
99.9192315098
  0
ARC
  8
Layer0$C$L0
 62
     3
 10
-73.3209930562
 20
93.2192315098
 40
16.5000000000
 50
112.8960659882
 51
144.3037003413
  0
LINE
  8
Layer0$C$L0
 62
     3
 10
-86.7209930562
 20
108.4192315098
 11
-79.7404945944
 21
108.4192315098
  0
LINE
  8
Layer0$C$L0
 62
     3
 10
-86.7209930562
 20
102.8467961031
 11
-86.7209930562
 21
108.4192315098
  0
LINE
  8
Layer0$C$L0
 62
     3
 10
-61.9218012815
 20
109.9192315098
 11
-58.9209930562
 21
109.9192315098
  0
LINE
  8
Layer0$C$L0
 62
     3
 10
-86.7414997530
 20
86.5192315098
 11
-88.2209930562
 21
86.5192315098
  0
ARC
  8
Layer0$C$L0
 62
     3
 10
-73.3209930562
 20
93.2192315098
 40
15.0000000000
 50
206.5300210180
 51
333.4699789820
  0
LINE
  8
Layer0$C$L0
 62
     3
 10
-58.4209930562
 20
86.5192315098
 11
-59.9004863593
 21
86.5192315098
  0
LINE
  8
Layer0$C$L0
 62
     3
 10
-59.9209930562
 20
83.5916669164
 11
-59.9209930562
 21
78.0192315098
  0
ARC
  8
Layer0$C$L0
 62
     3
 10
-73.3209930562
 20
93.2192315098
 40
16.5000000000
 50
292.8960659882
 51
324.3037003413
  0
ARC
  8
Layer0$C$L0
 62
     3
 10
-73.3209930562
 20
93.2192315098
 40
16.5000000000
 50
215.6962996587
 51
247.1039340118
  0
LINE
  8
Layer0$C$L0
 62
     3
 10
-79.7404945944
 20
78.0192315098
 11
-86.7209930562
 21
78.0192315098
  0
LINE
  8
Layer0$C$L0
 62
     3
 10
-59.9209930562
 20
78.0192315098
 11
-66.9014915179
 21
78.0192315098
  0
LINE
  8
Layer0$C$L0
 62
     3
 10
-86.7209930562
 20
78.0192315098
 11
-86.7209930562
 21
83.5916669164
  0
LINE
  8
Layer0$C$L0
 62
     3
 10
-58.4209930562
 20
111.5438051746
 11
-58.4209930562
 21
86.5192315098
  0
ARC
  8
Layer0$C$L0
 62
     3
 10
-58.9209930562
 20
77.0192315098
 40
0.5000000000
 50
270.0000000000
 51
360.0000000000
  0
LINE
  8
Layer0$C$L0
 62
     3
 10
-58.9209930562
 20
76.5192315098
 11
-87.7209930562
 21
76.5192315098
  0
ARC
  8
Layer0$C$L0
 62
     3
 10
-87.7209930562
 20
77.0192315098
 40
0.5000000000
 50
180.0000000000
 51
270.0000000000
  0
ARC
  8
Layer0$C$L0
 62
     3
 10
-58.9209930562
 20
109.4192315098
 40
0.5000000000
 50
0.0000000000
 51
90.0000000000
  0
ARC
  8
Layer0$C$L0
 62
     3
 10
-87.7209930562
 20
109.4192315098
 40
0.5000000000
 50
90.0000000000
 51
180.0000000000
  0
LINE
  8
Layer0$C$L0
 62
     3
 10
-58.4209930562
 20
86.5192315098
 11
-58.4209930562
 21
77.0192315098
  0
LINE
  8
Layer0$C$L0
 62
     3
 10
-88.2209930562
 20
77.0192315098
 11
-88.2209930562
 21
111.5438051746
  0
LINE
  8
Layer0$C$L0
 62
     3
 10
-87.7209930562
 20
109.9192315098
 11
-79.3209930562
 21
109.9192315098
  0
LINE
  8
Layer0$C$L0
 62
     3
 10
-85.2471046394
 20
84.1215470513
 11
-84.8188567513
 21
84.5497949394
  0
ARC
  8
Layer0$C$L0
 62
     3
 10
-73.3209930562
 20
93.2192315098
 40
14.4000000000
 50
217.0164438544
 51
232.9835561456
  0
LINE
  8
Layer0$C$L0
 62
     3
 10
-81.9904296266
 20
81.7213678146
 11
-82.4186775146
 21
81.2931199266
  0
ARC
  8
Layer0$C$L0
 62
     3
 10
-73.3209930562
 20
93.2192315098
 40
14.4000000000
 50
32.0164438544
 51
47.9835561456
  0
LINE
  8
Layer0$C$L0
 62
     3
 10
-63.6824414589
 20
103.9177511787
 11
-63.2184989206
 21
104.3070451915
  0
LINE
  8
Layer0$C$L0
 62
     3
 10
-60.6473484819
 20
101.2428674190
 11
-61.1112910202
 21
100.8535734063
  0
ARC
  8
Layer0$C$L0
 62
     3
 10
-73.3209930562
 20
93.2192315098
 40
14.4000000000
 50
307.0164438544
 51
322.9835561456
  0
LINE
  8
Layer0$C$L0
 62
     3
 10
-61.8231293610
 20
84.5497949394
 11
-61.3948814730
 21
84.1215470513
  0
LINE
  8
Layer0$C$L0
 62
     3
 10
-64.2233085977
 20
81.2931199266
 11
-64.6515564858
 21
81.7213678146
  0
LINE
  8
Layer0$C$L0
 62
     3
 10
-82.4186775146
 20
105.1453430929
 11
-81.9904296266
 21
104.7170952049
  0
ARC
  8
Layer0$C$L0
 62
     3
 10
-73.3209930562
 20
93.2192315098
 40
14.4000000000
 50
127.0164438544
 51
142.9835561456
  0
LINE
  8
Layer0$C$L0
 62
     3
 10
-84.8188567513
 20
101.8886680801
 11
-85.2471046394
 21
102.3169159682
  0
LINE
  8
Layer0$C$L0
 62
     3
 10
-69.8351789062
 20
115.9535469758
 11
-69.6608724266
 21
116.4324500926
  0
POLYLINE
  8
Layer0$C$L0
 62
     3
 66
     1
  0
VERTEX
  8
Layer0$C$L0
 62
     3
 10
-70.3209930562
 20
116.0227400117
  0
VERTEX
  8
Layer0$C$L0
 62
     3
 10
-70.2681427589
 20
116.0157247721
  0
VERTEX
  8
Layer0$C$L0
 62
     3
 10
-69.8351789062
 20
115.9535469758
  0
SEQEND
  8
Layer0$C$L0
 62
     3
  0
LINE
  8
Layer0$C$L0
 62
     3
 10
-69.8351789062
 20
115.9535469758
 11
-69.8080575406
 21
115.4433014355
  0
POLYLINE
  8
Layer0$C$L0
 62
     3
 66
     1
  0
VERTEX
  8
Layer0$C$L0
 62
     3
 10
-69.8080575406
 20
115.4433014355
  0
VERTEX
  8
Layer0$C$L0
 62
     3
 10
-70.2442177458
 20
115.5078710754
  0
VERTEX
  8
Layer0$C$L0
 62
     3
 10
-70.3209930562
 20
115.5183346307
  0
SEQEND
  8
Layer0$C$L0
 62
     3
  0
LINE
  8
Layer0$C$L0
 62
     3
 10
-69.0081396375
 20
115.3020142916
 11
-68.6620873139
 21
116.2527852365
  0
POLYLINE
  8
Layer0$C$L0
 62
     3
 66
     1
  0
VERTEX
  8
Layer0$C$L0
 62
     3
 10
-69.0081396375
 20
115.3020142916
  0
VERTEX
  8
Layer0$C$L0
 62
     3
 10
-69.4074609399
 20
115.3762680078
  0
VERTEX
  8
Layer0$C$L0
 62
     3
 10
-69.8080575406
 20
115.4433014355
  0
SEQEND
  8
Layer0$C$L0
 62
     3
  0
ARC
  8
Layer0$C$L0
 62
     3
 10
-73.3209930562
 20
93.2192315098
 40
24.0000000000
 50
104.4775121859
 51
127.1819265256
  0
ARC
  8
Layer0$C$L0
 62
     3
 10
-73.3209930562
 20
93.2192315098
 40
20.0000000000
 50
61.3730734413
 51
69.2065556195
  0
ARC
  8
Layer0$C$L0
 62
     3
 10
-66.7209930562
 20
115.2519344760
 40
0.5000000000
 50
0.0000000000
 51
73.3241651487
  0
LINE
  8
Layer0$C$L0
 62
     3
 10
-66.2209930562
 20
111.9165575218
 11
-66.2209930562
 21
115.2519344760
  0
LINE
  8
Layer0$C$L0
 62
     3
 10
-64.8687142878
 20
80.9485761230
 11
-64.7968214080
 21
80.8766832432
  0
LINE
  8
Layer0$C$L0
 62
     3
 10
-85.6635413227
 20
101.7434031579
 11
-85.5916484430
 21
101.6715102781
  0
LINE
  8
Layer0$C$L0
 62
     3
 10
-60.9784447896
 20
84.6950598616
 11
-61.0503376694
 21
84.7669527414
  0
LINE
  8
Layer0$C$L0
 62
     3
 10
-63.7535344931
 20
104.7718821425
 11
-63.8314196761
 21
104.7065287142
  0
LINE
  8
Layer0$C$L0
 62
     3
 10
-60.3603665838
 20
100.5698887214
 11
-60.2824814008
 21
100.6352421497
  0
LINE
  8
Layer0$C$L0
 62
     3
 10
-85.5916484430
 20
84.7669527414
 11
-85.6635413227
 21
84.6950598616
  0
LINE
  8
Layer0$C$L0
 62
     3
 10
-81.7732718246
 20
105.4898868965
 11
-81.8451647043
 21
105.5617797763
  0
LINE
  8
Layer0$C$L0
 62
     3
 10
-81.8451647043
 20
80.8766832432
 11
-81.7732718246
 21
80.9485761230
  0
ARC
  8
Layer0$C$L0
 62
     3
 10
-11.8091028786
 20
19.2479339764
 40
104.6491614800
 50
116.8903508930
 51
117.1977104593
  0
ARC
  8
Layer0$C$L0
 62
     3
 10
-73.3209930562
 20
93.2192315098
 40
24.0000000000
 50
52.8180734744
 51
53.7817777110
  0
LINE
  8
Layer0$C$L0
 62
     3
 10
-59.1402982750
 20
117.6495117027
 11
-59.1402982750
 21
112.5817699674
  0
ARC
  8
Layer0$C$L0
 62
     3
 10
-59.4209930562
 20
111.5438051746
 40
1.0000000000
 50
0.0000000000
 51
52.8180734744
  0
ARC
  8
Layer0$C$L0
 62
     3
 10
-87.2209930562
 20
111.5438051746
 40
1.0000000000
 50
127.1819265256
 51
180.0000000000
  0
LINE
  8
Layer0$C$L0
 62
     3
 10
-81.4209930562
 20
75.9192315098
 11
-79.0209930562
 21
75.9192315098
  0
LINE
  8
Layer0$C$L0
 62
     3
 10
-81.4209930562
 20
76.5192315098
 11
-81.4209930562
 21
75.3192315098
  0
LINE
  8
Layer0$C$L0
 62
     3
 10
-79.0209930562
 20
76.5192315098
 11
-79.0209930562
 21
75.3192315098
  0
LINE
  8
Layer0$C$L0
 62
     3
 10
-71.4209930562
 20
75.9192315098
 11
-69.0209930562
 21
75.9192315098
  0
LINE
  8
Layer0$C$L0
 62
     3
 10
-71.4209930562
 20
76.5192315098
 11
-71.4209930562
 21
75.3192315098
  0
LINE
  8
Layer0$C$L0
 62
     3
 10
-69.0209930562
 20
76.5192315098
 11
-69.0209930562
 21
75.3192315098
  0
LINE
  8
Layer0$C$L0
 62
     3
 10
-77.6209930562
 20
75.9192315098
 11
-75.2209930562
 21
75.9192315098
  0
LINE
  8
Layer0$C$L0
 62
     3
 10
-75.2209930562
 20
75.3192315098
 11
-75.2209930562
 21
76.5192315098
  0
LINE
  8
Layer0$C$L0
 62
     3
 10
-77.6209930562
 20
75.3192315098
 11
-77.6209930562
 21
76.5192315098
  0
LINE
  8
Layer0$C$L0
 62
     3
 10
-65.2209930562
 20
75.3192315098
 11
-65.2209930562
 21
76.5192315098
  0
LINE
  8
Layer0$C$L0
 62
     3
 10
-67.6209930562
 20
75.9192315098
 11
-65.2209930562
 21
75.9192315098
  0
LINE
  8
Layer0$C$L0
 62
     3
 10
-67.6209930562
 20
75.3192315098
 11
-67.6209930562
 21
76.5192315098
  0
LINE
  8
Layer0$C$L0
 62
     3
 10
-87.6209930562
 20
75.9192315098
 11
-85.2209930562
 21
75.9192315098
  0
LINE
  8
Layer0$C$L0
 62
     3
 10
-85.2209930562
 20
75.3192315098
 11
-85.2209930562
 21
76.5192315098
  0
LINE
  8
Layer0$C$L0
 62
     3
 10
-87.6209930562
 20
75.3192315098
 11
-87.6209930562
 21
76.5192315098
  0
LINE
  8
Layer0$C$L0
 62
     3
 10
-61.4209930562
 20
75.9192315098
 11
-59.0209930562
 21
75.9192315098
  0
LINE
  8
Layer0$C$L0
 62
     3
 10
-61.4209930562
 20
76.5192315098
 11
-61.4209930562
 21
75.3192315098
  0
LINE
  8
Layer0$C$L0
 62
     3
 10
-59.0209930562
 20
76.5192315098
 11
-59.0209930562
 21
75.3192315098
  0
LINE
  8
Layer0$C$L0
 62
     3
 10
-79.0209930562
 20
75.3192315098
 11
-87.6209930562
 21
75.3192315098
  0
LINE
  8
Layer0$C$L0
 62
     3
 10
-59.0209930562
 20
75.3192315098
 11
-67.6209930562
 21
75.3192315098
  0
LINE
  8
Layer0$C$L0
 62
     3
 10
-71.4209930562
 20
75.3192315098
 11
-77.6209930562
 21
75.3192315098
  0
LINE
  8
Layer0$C$L0
 62
     3
 10
-69.0209930562
 20
75.3192315098
 11
-71.4209930562
 21
75.3192315098
  0
LINE
  8
Layer0$C$L0
 62
     3
 10
-64.3996702843
 20
111.1192315098
 11
-63.6133925454
 21
111.1192315098
  0
ARC
  8
Layer0$C$L0
 62
     3
 10
-73.3209930562
 20
93.2192315098
 40
10.9985000000
 50
97.8385553746
 51
442.1614446254
  0
CIRCLE
  8
Layer0$C$L0
 62
     3
 10
-73.3209930562
 20
93.2192315098
 40
9.5500000000
  0
CIRCLE
  8
Layer0$C$L0
 62
     3
 10
-73.3209930562
 20
93.2192315098
 40
9.7500000000
  0
CIRCLE
  8
Layer0$C$L0
 62
     3
 10
-73.3209930562
 20
93.2192315098
 40
11.0000000000
  0
CIRCLE
  8
Layer0$C$L0
 62
     3
 10
-73.3209930562
 20
93.2192315098
 40
10.2000000000
  0
CIRCLE
  8
Layer0$C$L0
 62
     3
 10
-73.3209930562
 20
93.2192315098
 40
10.0000000000
  0
CIRCLE
  8
Layer0$C$L0
 62
     3
 10
-73.3209930562
 20
93.2192315098
 40
14.0000000000
  0
LINE
  8
Layer0$C$L0
 62
     3
 10
-71.8209930562
 20
104.1164788686
 11
-71.8209930562
 21
103.9192315098
  0
LINE
  8
Layer0$C$L0
 62
     3
 10
-74.8209930562
 20
103.9192315098
 11
-74.8209930562
 21
104.1164788686
  0
LINE
  8
Layer0$C$L0
  6
CENTER
 62
     3
 10
-73.3209930562
 20
93.2192315098
 11
-62.5473585414
 21
122.8195490645
  0
POLYLINE
  8
Layer0$C$L0
 62
     3
 66
     1
  0
VERTEX
  8
Layer0$C$L0
 62
     3
 10
-136.7413054120
 20
121.6466752558
  0
VERTEX
  8
Layer0$C$L0
 62
     3
 10
-136.8398472659
 20
121.6538275527
  0
VERTEX
  8
Layer0$C$L0
 62
     3
 10
-137.0731574870
 20
121.6739036298
  0
VERTEX
  8
Layer0$C$L0
 62
     3
 10
-137.2478055293
 20
121.6913258550
  0
VERTEX
  8
Layer0$C$L0
 62
     3
 10
-137.3436447410
 20
121.7024388123
  0
VERTEX
  8
Layer0$C$L0
 62
     3
 10
-137.3683679566
 20
121.7056948954
  0
SEQEND
  8
Layer0$C$L0
 62
     3
  0
LINE
  8
Layer0$C$L0
 62
     3
 10
-136.6988259003
 20
121.6435920371
 11
-136.7413054120
 21
121.6466752558
  0
POLYLINE
  8
Layer0$C$L0
 62
     3
 66
     1
  0
VERTEX
  8
Layer0$C$L0
 62
     3
 10
-136.3707299421
 20
121.6171480918
  0
VERTEX
  8
Layer0$C$L0
 62
     3
 10
-136.4542734435
 20
121.6241144432
  0
VERTEX
  8
Layer0$C$L0
 62
     3
 10
-136.7050218369
 20
121.6435386164
  0
SEQEND
  8
Layer0$C$L0
 62
     3
  0
POLYLINE
  8
Layer0$C$L0
 62
     3
 66
     1
  0
VERTEX
  8
Layer0$C$L0
 62
     3
 10
-135.4803135267
 20
121.0122198112
  0
VERTEX
  8
Layer0$C$L0
 62
     3
 10
-135.4897485339
 20
121.1372057843
  0
VERTEX
  8
Layer0$C$L0
 62
     3
 10
-135.5576601096
 20
121.2931288624
  0
VERTEX
  8
Layer0$C$L0
 62
     3
 10
-135.6487430970
 20
121.4006897868
  0
VERTEX
  8
Layer0$C$L0
 62
     3
 10
-135.7485188272
 20
121.4738010989
  0
VERTEX
  8
Layer0$C$L0
 62
     3
 10
-135.8511634694
 20
121.5226815024
  0
VERTEX
  8
Layer0$C$L0
 62
     3
 10
-135.9702096721
 20
121.5593255984
  0
VERTEX
  8
Layer0$C$L0
 62
     3
 10
-136.1638981228
 20
121.5948218363
  0
VERTEX
  8
Layer0$C$L0
 62
     3
 10
-136.3728162698
 20
121.6166939291
  0
SEQEND
  8
Layer0$C$L0
 62
     3
  0
LINE
  8
Layer0$C$L0
 62
     3
 10
-136.9736716666
 20
113.3327840396
 11
-135.5038253562
 21
113.3327840396
  0
LINE
  8
Layer0$C$L0
 62
     3
 10
-131.9736716666
 20
79.4692315098
 11
-131.4736716666
 21
79.4692315098
  0
LINE
  8
Layer0$C$L0
 62
     3
 10
-131.4736716666
 20
106.9692315098
 11
-131.9736716666
 21
106.9692315098
  0
LINE
  8
Layer0$C$L0
 62
     3
 10
-132.7736716666
 20
107.1192315098
 11
-136.9952480262
 21
107.1192315098
  0
LINE
  8
Layer0$C$L0
 62
     3
 10
-137.2736716666
 20
79.3192315098
 11
-132.7736716666
 21
79.3192315098
  0
LINE
  8
Layer0$C$L0
 62
     3
 10
-137.7736716666
 20
79.8192315098
 11
-137.2736716666
 21
79.3192315098
  0
LINE
  8
Layer0$C$L0
 62
     3
 10
-137.4244408719
 20
106.9684623044
 11
-137.7736716666
 21
106.6192315098
  0
LINE
  8
Layer0$C$L0
 62
     3
 10
-131.4736716666
 20
79.2192315098
 11
-131.0121881473
 21
79.2192315098
  0
LINE
  8
Layer0$C$L0
 62
     3
 10
-131.0121881473
 20
107.2192315098
 11
-131.4736716666
 21
107.2192315098
  0
ARC
  8
Layer0$C$L0
 62
     3
 10
-131.0121881473
 20
106.7192315098
 40
0.5000000000
 50
21.8014094864
 51
90.0000000000
  0
ARC
  8
Layer0$C$L0
 62
     3
 10
-131.0121881473
 20
79.7192315098
 40
0.5000000000
 50
270.0000000000
 51
338.1985905136
  0
LINE
  8
Layer0$C$L0
 62
     3
 10
-130.5479498018
 20
79.5335361716
 11
-129.4736716666
 21
82.2192315098
  0
LINE
  8
Layer0$C$L0
 62
     3
 10
-129.4736716666
 20
104.2192315098
 11
-130.5479498018
 21
106.9049268479
  0
LINE
  8
Layer0$C$L0
 62
     3
 10
-132.7736716666
 20
82.2192315098
 11
-131.9736716666
 21
82.2192315098
  0
LINE
  8
Layer0$C$L0
 62
     3
 10
-170.8736716666
 20
88.1192315098
 11
-171.8736716666
 21
88.1192315098
  0
LINE
  8
Layer0$C$L0
 62
     3
 10
-171.8736716666
 20
88.1192315098
 11
-171.5736716666
 21
88.4192315098
  0
LINE
  8
Layer0$C$L0
 62
     3
 10
-170.8736716666
 20
88.1192315098
 11
-170.5736716666
 21
88.4192315098
  0
LINE
  8
Layer0$C$L0
 62
     3
 10
-170.8736716666
 20
100.5192315098
 11
-171.8736716666
 21
100.5192315098
  0
LINE
  8
Layer0$C$L0
 62
     3
 10
-171.8736716666
 20
100.5192315098
 11
-171.5736716666
 21
100.8192315098
  0
LINE
  8
Layer0$C$L0
 62
     3
 10
-170.8736716666
 20
100.5192315098
 11
-170.5736716666
 21
100.8192315098
  0
LINE
  8
Layer0$C$L0
 62
     3
 10
-171.5736716666
 20
78.5057987648
 11
-171.8736716666
 21
78.4420317963
  0
LINE
  8
Layer0$C$L0
 62
     3
 10
-171.8736716666
 20
78.4192315098
 11
-171.8736716666
 21
108.0192315098
  0
LINE
  8
Layer0$C$L0
 62
     3
 10
-171.5736716666
 20
85.6192315098
 11
-171.8736716666
 21
85.9192315098
  0
LINE
  8
Layer0$C$L0
 62
     3
 10
-171.8736716666
 20
85.9192315098
 11
-170.8736716666
 21
85.9192315098
  0
LINE
  8
Layer0$C$L0
 62
     3
 10
-170.5736716666
 20
85.6192315098
 11
-170.8736716666
 21
85.9192315098
  0
LINE
  8
Layer0$C$L0
 62
     3
 10
-169.3159124410
 20
72.6972105168
 11
-171.8736716666
 21
78.4420317963
  0
LINE
  8
Layer0$C$L0
 62
     3
 10
-171.8736716666
 20
98.3192315098
 11
-170.8736716666
 21
98.3192315098
  0
LINE
  8
Layer0$C$L0
 62
     3
 10
-170.8736716666
 20
98.3192315098
 11
-170.5736716666
 21
98.0192315098
  0
LINE
  8
Layer0$C$L0
 62
     3
 10
-171.8736716666
 20
98.3192315098
 11
-171.5736716666
 21
98.0192315098
  0
LINE
  8
Layer0$C$L0
 62
     3
 10
-171.8736716666
 20
107.9964312232
 11
-169.3159124410
 21
113.7412525027
  0
LINE
  8
Layer0$C$L0
 62
     3
 10
-171.8736716666
 20
107.9964312232
 11
-171.5736716666
 21
107.9326642547
  0
LINE
  8
Layer0$C$L0
 62
     3
 10
-170.8736716666
 20
85.9192315098
 11
-170.8736716666
 21
88.1192315098
  0
LINE
  8
Layer0$C$L0
 62
     3
 10
-170.8736716666
 20
98.3192315098
 11
-170.8736716666
 21
100.5192315098
  0
LINE
  8
Layer0$C$L0
 62
     3
 10
-169.2468224233
 20
113.9192315098
 11
-157.8736716666
 21
113.9192315098
  0
LINE
  8
Layer0$C$L0
 62
     3
 10
-157.9027849657
 20
113.9192315098
 11
-157.9665519342
 21
113.6192315098
  0
LINE
  8
Layer0$C$L0
 62
     3
 10
-157.9665519342
 20
72.8192315098
 11
-157.9027849657
 21
72.5192315098
  0
LINE
  8
Layer0$C$L0
 62
     3
 10
-157.8736716666
 20
72.5192315098
 11
-169.2468224233
 21
72.5192315098
  0
ARC
  8
Layer0$C$L0
 62
     3
 10
-169.0418488037
 20
72.8192315098
 40
0.3000000000
 50
204.0000000000
 51
270.0000000000
  0
ARC
  8
Layer0$C$L0
 62
     3
 10
-169.0418488037
 20
113.6192315098
 40
0.3000000000
 50
90.0000000000
 51
156.0000000000
  0
LINE
  8
Layer0$C$L0
 62
     3
 10
-157.9027849657
 20
113.9192315098
 11
-153.8703033450
 21
112.1238550193
  0
LINE
  8
Layer0$C$L0
 62
     3
 10
-153.8703033450
 20
74.3146080002
 11
-157.9027849657
 21
72.5192315098
  0
ARC
  8
Layer0$C$L0
 62
     3
 10
-154.0736716666
 20
74.7713807291
 40
0.5000000000
 50
294.0000000000
 51
360.0000000000
  0
ARC
  8
Layer0$C$L0
 62
     3
 10
-154.0736716666
 20
111.6670822904
 40
0.5000000000
 50
0.0000000000
 51
66.0000000000
  0
LINE
  8
Layer0$C$L0
 62
     3
 10
-153.5736716666
 20
112.0047481629
 11
-153.5736716666
 21
109.0325810481
  0
LINE
  8
Layer0$C$L0
 62
     3
 10
-153.5736716666
 20
77.4058819714
 11
-153.5736716666
 21
74.4337148566
  0
ARC
  8
Layer0$C$L0
 62
     3
 10
-153.0736716666
 20
109.0325810481
 40
0.5000000000
 50
180.0000000000
 51
246.0000000000
  0
ARC
  8
Layer0$C$L0
 62
     3
 10
-153.0736716666
 20
77.4058819714
 40
0.5000000000
 50
114.0000000000
 51
180.0000000000
  0
LINE
  8
Layer0$C$L0
 62
     3
 10
-153.2770399881
 20
108.5758083193
 11
-152.9253627159
 21
108.4192315098
  0
LINE
  8
Layer0$C$L0
 62
     3
 10
-152.9253627159
 20
108.4192315098
 11
-152.9891296844
 21
108.1192315098
  0
LINE
  8
Layer0$C$L0
 62
     3
 10
-152.9891296844
 20
78.3192315098
 11
-152.9253627159
 21
78.0192315098
  0
LINE
  8
Layer0$C$L0
 62
     3
 10
-152.9253627159
 20
78.0192315098
 11
-153.2770399881
 21
77.8626547002
  0
LINE
  8
Layer0$C$L0
 62
     3
 10
-152.9253627159
 20
108.4192315098
 11
-144.7736716666
 21
108.4192315098
  0
LINE
  8
Layer0$C$L0
 62
     3
 10
-144.7736716666
 20
78.0192315098
 11
-152.9253627159
 21
78.0192315098
  0
LINE
  8
Layer0$C$L0
 62
     3
 10
-149.5736716666
 20
107.9192315098
 11
-149.5736716666
 21
78.5192315098
  0
ARC
  8
Layer0$C$L0
 62
     3
 10
-150.0736716666
 20
78.5192315098
 40
0.5000000000
 50
270.0000000000
 51
360.0000000000
  0
ARC
  8
Layer0$C$L0
 62
     3
 10
-150.0736716666
 20
107.9192315098
 40
0.5000000000
 50
0.0000000000
 51
90.0000000000
  0
LINE
  8
Layer0$C$L0
 62
     3
 10
-172.1236716666
 20
82.8799161455
 11
-171.8736716666
 21
82.8799161455
  0
LINE
  8
Layer0$C$L0
 62
     3
 10
-172.1236716666
 20
83.5648378227
 11
-171.8736716666
 21
83.5648378227
  0
ARC
  8
Layer0$C$L0
 62
     3
 10
-172.1385402025
 20
72.9639685896
 40
9.9159587033
 50
89.9140875129
 51
90.2029948784
  0
LINE
  8
Layer0$C$L0
 62
     3
 10
-172.1736716666
 20
82.2355765536
 11
-172.1736716666
 21
83.5148280795
  0
ARC
  8
Layer0$C$L0
 62
     3
 10
-172.1236658978
 20
83.5148320541
 40
5.0005768944E-02
 50
90.0066097791
 51
180.0045539892
  0
ARC
  8
Layer0$C$L0
 62
     3
 10
-172.1385402133
 20
95.1599714666
 40
9.9159288133
 50
89.9140871911
 51
90.2029954276
  0
LINE
  8
Layer0$C$L0
 62
     3
 10
-172.1736716666
 20
104.4327596399
 11
-172.1736716666
 21
105.7096073993
  0
ARC
  8
Layer0$C$L0
 62
     3
 10
-172.1236658978
 20
105.7096113740
 40
5.0005768945E-02
 50
90.0066097809
 51
180.0045540017
  0
LINE
  8
Layer0$C$L0
 62
     3
 10
-172.1236716666
 20
105.0758891326
 11
-171.8736716666
 21
105.0758891326
  0
LINE
  8
Layer0$C$L0
 62
     3
 10
-172.1236716666
 20
105.7596171426
 11
-171.8736716666
 21
105.7596171426
  0
ARC
  8
Layer0$C$L0
 62
     3
 10
-172.1236653232
 20
82.2355721944
 40
5.0006343569E-02
 50
179.9950054209
 51
269.9927319454
  0
LINE
  8
Layer0$C$L0
 62
     3
 10
-172.1236716666
 20
82.1855658513
 11
-171.8736716666
 21
82.1855658513
  0
LINE
  8
Layer0$C$L0
 62
     3
 10
-172.1236716666
 20
104.3827489375
 11
-171.8736716666
 21
104.3827489375
  0
ARC
  8
Layer0$C$L0
 62
     3
 10
-172.1236653232
 20
104.4327552807
 40
5.0006343571E-02
 50
179.9950054163
 51
269.9927319434
  0
LINE
  8
Layer0$C$L0
 62
     3
 10
-172.1236716666
 20
102.9413400354
 11
-171.8736716666
 21
102.9413400354
  0
LINE
  8
Layer0$C$L0
 62
     3
 10
-172.1236716666
 20
103.1349621267
 11
-171.8736716666
 21
103.1349621267
  0
LINE
  8
Layer0$C$L0
 62
     3
 10
-172.1736716666
 20
102.9913400354
 11
-172.1736716666
 21
103.8979643078
  0
ARC
  8
Layer0$C$L0
 62
     3
 10
-172.1236716666
 20
103.0849621267
 40
5.0000000000E-02
 50
90.0000000000
 51
180.0000000000
  0
ARC
  8
Layer0$C$L0
 62
     3
 10
-172.1236716666
 20
102.9913400354
 40
5.0000000000E-02
 50
180.0000000000
 51
270.0000000000
  0
POLYLINE
  8
Layer0$C$L0
 62
     3
 66
     1
  0
VERTEX
  8
Layer0$C$L0
 62
     3
 10
-172.1736716666
 20
103.8979643078
  0
VERTEX
  8
Layer0$C$L0
 62
     3
 10
-172.1727109306
 20
103.8924011898
  0
VERTEX
  8
Layer0$C$L0
 62
     3
 10
-172.1698656432
 20
103.8870518594
  0
VERTEX
  8
Layer0$C$L0
 62
     3
 10
-172.1652451472
 20
103.8821218882
  0
VERTEX
  8
Layer0$C$L0
 62
     3
 10
-172.1590270056
 20
103.8778007323
  0
VERTEX
  8
Layer0$C$L0
 62
     3
 10
-172.1514501782
 20
103.8742544513
  0
VERTEX
  8
Layer0$C$L0
 62
     3
 10
-172.1428058382
 20
103.8716193268
  0
VERTEX
  8
Layer0$C$L0
 62
     3
 10
-172.1334261827
 20
103.8699966251
  0
VERTEX
  8
Layer0$C$L0
 62
     3
 10
-172.1236716666
 20
103.8694487058
  0
SEQEND
  8
Layer0$C$L0
 62
     3
  0
LINE
  8
Layer0$C$L0
 62
     3
 10
-172.1736716666
 20
103.8979643078
 11
-172.1736716666
 21
104.3253521682
  0
ARC
  8
Layer0$C$L0
 62
     3
 10
-172.1236716666
 20
104.0315590177
 40
5.0000000000E-02
 50
90.0000000000
 51
180.0000000000
  0
POLYLINE
  8
Layer0$C$L0
 62
     3
 66
     1
  0
VERTEX
  8
Layer0$C$L0
 62
     3
 10
-172.1736716666
 20
103.1725537642
  0
VERTEX
  8
Layer0$C$L0
 62
     3
 10
-172.1727109306
 20
103.1669906462
  0
VERTEX
  8
Layer0$C$L0
 62
     3
 10
-172.1698656432
 20
103.1616413158
  0
VERTEX
  8
Layer0$C$L0
 62
     3
 10
-172.1652451472
 20
103.1567113446
  0
VERTEX
  8
Layer0$C$L0
 62
     3
 10
-172.1590270056
 20
103.1523901887
  0
VERTEX
  8
Layer0$C$L0
 62
     3
 10
-172.1514501782
 20
103.1488439077
  0
VERTEX
  8
Layer0$C$L0
 62
     3
 10
-172.1428058382
 20
103.1462087832
  0
VERTEX
  8
Layer0$C$L0
 62
     3
 10
-172.1334261827
 20
103.1445860815
  0
VERTEX
  8
Layer0$C$L0
 62
     3
 10
-172.1236716666
 20
103.1440381622
  0
SEQEND
  8
Layer0$C$L0
 62
     3
  0
LINE
  8
Layer0$C$L0
 62
     3
 10
-172.1236716666
 20
103.1440381622
 11
-171.8736716666
 21
103.1440381622
  0
LINE
  8
Layer0$C$L0
 62
     3
 10
-172.1236716666
 20
103.8694487058
 11
-171.8736716666
 21
103.8694487058
  0
LINE
  8
Layer0$C$L0
 62
     3
 10
-172.1236716666
 20
104.0815590177
 11
-171.8736716666
 21
104.0815590177
  0
LINE
  8
Layer0$C$L0
 62
     3
 10
-172.1736716666
 20
80.7398860460
 11
-172.1736716666
 21
82.1975111111
  0
ARC
  8
Layer0$C$L0
 62
     3
 10
-172.1236716666
 20
80.8856006272
 40
5.0000000000E-02
 50
90.0000000000
 51
180.0000000000
  0
ARC
  8
Layer0$C$L0
 62
     3
 10
-172.1236716666
 20
80.7916405062
 40
5.0000000000E-02
 50
180.0000000000
 51
270.0000000000
  0
LINE
  8
Layer0$C$L0
 62
     3
 10
-172.1236716666
 20
80.7416405062
 11
-171.8736716666
 21
80.7416405062
  0
LINE
  8
Layer0$C$L0
 62
     3
 10
-172.1236716666
 20
80.9356006272
 11
-171.8736716666
 21
80.9356006272
  0
POLYLINE
  8
Layer0$C$L0
 62
     3
 66
     1
  0
VERTEX
  8
Layer0$C$L0
 62
     3
 10
-172.1736716666
 20
81.6998850908
  0
VERTEX
  8
Layer0$C$L0
 62
     3
 10
-172.1727109306
 20
81.6943219729
  0
VERTEX
  8
Layer0$C$L0
 62
     3
 10
-172.1698656432
 20
81.6889726424
  0
VERTEX
  8
Layer0$C$L0
 62
     3
 10
-172.1652451472
 20
81.6840426712
  0
VERTEX
  8
Layer0$C$L0
 62
     3
 10
-172.1590270056
 20
81.6797215153
  0
VERTEX
  8
Layer0$C$L0
 62
     3
 10
-172.1514501782
 20
81.6761752343
  0
VERTEX
  8
Layer0$C$L0
 62
     3
 10
-172.1428058382
 20
81.6735401098
  0
VERTEX
  8
Layer0$C$L0
 62
     3
 10
-172.1334261827
 20
81.6719174082
  0
VERTEX
  8
Layer0$C$L0
 62
     3
 10
-172.1236716666
 20
81.6713694889
  0
SEQEND
  8
Layer0$C$L0
 62
     3
  0
ARC
  8
Layer0$C$L0
 62
     3
 10
-172.1236716666
 20
81.8338501075
 40
5.0000000000E-02
 50
90.0000000000
 51
180.0000000000
  0
POLYLINE
  8
Layer0$C$L0
 62
     3
 66
     1
  0
VERTEX
  8
Layer0$C$L0
 62
     3
 10
-172.1736716666
 20
80.9732081098
  0
VERTEX
  8
Layer0$C$L0
 62
     3
 10
-172.1727109306
 20
80.9676449918
  0
VERTEX
  8
Layer0$C$L0
 62
     3
 10
-172.1698656432
 20
80.9622956614
  0
VERTEX
  8
Layer0$C$L0
 62
     3
 10
-172.1652451472
 20
80.9573656902
  0
VERTEX
  8
Layer0$C$L0
 62
     3
 10
-172.1590270056
 20
80.9530445343
  0
VERTEX
  8
Layer0$C$L0
 62
     3
 10
-172.1514501782
 20
80.9494982533
  0
VERTEX
  8
Layer0$C$L0
 62
     3
 10
-172.1428058382
 20
80.9468631288
  0
VERTEX
  8
Layer0$C$L0
 62
     3
 10
-172.1334261827
 20
80.9452404271
  0
VERTEX
  8
Layer0$C$L0
 62
     3
 10
-172.1236716666
 20
80.9446925078
  0
SEQEND
  8
Layer0$C$L0
 62
     3
  0
LINE
  8
Layer0$C$L0
 62
     3
 10
-172.1236716666
 20
80.9446925078
 11
-171.8736716666
 21
80.9446925078
  0
LINE
  8
Layer0$C$L0
 62
     3
 10
-172.1236716666
 20
81.6713694889
 11
-171.8736716666
 21
81.6713694889
  0
LINE
  8
Layer0$C$L0
 62
     3
 10
-172.1236716666
 20
81.8838501075
 11
-171.8736716666
 21
81.8838501075
  0
LINE
  8
Layer0$C$L0
 62
     3
 10
-172.0736716666
 20
105.7768677663
 11
-171.8736716666
 21
105.7768677663
  0
POLYLINE
  8
Layer0$C$L0
 62
     3
 66
     1
  0
VERTEX
  8
Layer0$C$L0
 62
     3
 10
-172.0736716666
 20
105.7768677663
  0
VERTEX
  8
Layer0$C$L0
 62
     3
 10
-172.1067682698
 20
105.7712311933
  0
VERTEX
  8
Layer0$C$L0
 62
     3
 10
-172.1295238902
 20
105.7586204522
  0
SEQEND
  8
Layer0$C$L0
 62
     3
  0
LINE
  8
Layer0$C$L0
 62
     3
 10
-172.0736716666
 20
80.6398860460
 11
-171.8736716666
 21
80.6398860460
  0
ARC
  8
Layer0$C$L0
 62
     3
 10
-172.0736716666
 20
80.7398860460
 40
1.0000000000E-01
 50
180.0000000000
 51
270.0000000000
  0
ARC
  8
Layer0$C$L0
 62
     3
 10
-172.0736716666
 20
102.9898860460
 40
0.1000000000
 50
180.0000000000
 51
270.0000000000
  0
LINE
  8
Layer0$C$L0
 62
     3
 10
-172.0736716666
 20
102.8898860460
 11
-171.8736716666
 21
102.8898860460
  0
LINE
  8
Layer0$C$L0
 62
     3
 10
-149.0736716666
 20
79.2192315098
 11
-149.0736716666
 21
79.1192315098
  0
LINE
  8
Layer0$C$L0
 62
     3
 10
-146.5736716666
 20
79.1192315098
 11
-149.0736716666
 21
79.1192315098
  0
LINE
  8
Layer0$C$L0
 62
     3
 10
-146.5736716666
 20
79.2192315098
 11
-146.5736716666
 21
79.1192315098
  0
LINE
  8
Layer0$C$L0
 62
     3
 10
-146.5736716666
 20
107.2192315098
 11
-146.5736716666
 21
107.3192315098
  0
LINE
  8
Layer0$C$L0
 62
     3
 10
-146.5736716666
 20
107.3192315098
 11
-149.0736716666
 21
107.3192315098
  0
LINE
  8
Layer0$C$L0
 62
     3
 10
-149.0736716666
 20
107.2192315098
 11
-149.0736716666
 21
107.3192315098
  0
LINE
  8
Layer0$C$L0
 62
     3
 10
-148.1736716666
 20
78.1192315098
 11
-148.2737907748
 21
78.0192315098
  0
LINE
  8
Layer0$C$L0
 62
     3
 10
-148.1736716666
 20
78.1192315098
 11
-148.2978311525
 21
78.4192315098
  0
LINE
  8
Layer0$C$L0
 62
     3
 10
-148.2737907748
 20
108.4192315098
 11
-148.1736716666
 21
108.3192315098
  0
LINE
  8
Layer0$C$L0
 62
     3
 10
-148.2978311525
 20
108.0192315098
 11
-148.1736716666
 21
108.3192315098
  0
LINE
  8
Layer0$C$L0
 62
     3
 10
-148.1736716666
 20
108.3192315098
 11
-146.0736716666
 21
108.3192315098
  0
LINE
  8
Layer0$C$L0
 62
     3
 10
-146.0736716666
 20
78.1192315098
 11
-148.1736716666
 21
78.1192315098
  0
ARC
  8
Layer0$C$L0
 62
     3
 10
-146.0736716666
 20
78.6192315098
 40
0.5000000000
 50
270.0000000000
 51
360.0000000000
  0
LINE
  8
Layer0$C$L0
 62
     3
 10
-145.7736716666
 20
107.2192315098
 11
-145.5736716666
 21
107.4192315098
  0
ARC
  8
Layer0$C$L0
 62
     3
 10
-146.0736716666
 20
107.8192315098
 40
0.5000000000
 50
0.0000000000
 51
90.0000000000
  0
LINE
  8
Layer0$C$L0
 62
     3
 10
-145.5736716666
 20
107.8192315098
 11
-145.5736716666
 21
107.4192315098
  0
LINE
  8
Layer0$C$L0
 62
     3
 10
-145.5736716666
 20
79.0192315098
 11
-145.7736716666
 21
79.2192315098
  0
LINE
  8
Layer0$C$L0
 62
     3
 10
-145.5736716666
 20
79.0192315098
 11
-145.5736716666
 21
78.6192315098
  0
ARC
  8
Layer0$C$L0
 62
     3
 10
-145.5736716666
 20
79.5192315098
 40
0.5000000000
 50
270.0000000000
 51
323.1301023542
  0
ARC
  8
Layer0$C$L0
 62
     3
 10
-145.5736716666
 20
106.9192315098
 40
0.5000000000
 50
36.8698976458
 51
90.0000000000
  0
LINE
  8
Layer0$C$L0
 62
     3
 10
-172.0736716666
 20
83.6107424794
 11
-171.8736716666
 21
83.6107424794
  0
ARC
  8
Layer0$C$L0
 62
     3
 10
-172.0736716666
 20
83.5107424794
 40
0.1000000000
 50
90.0000000000
 51
180.0000000000
  0
LINE
  8
Layer0$C$L0
 62
     3
 10
-169.2123148389
 20
72.5723685299
 11
-169.2468224233
 21
72.5192315098
  0
LINE
  8
Layer0$C$L0
 62
     3
 10
-169.2468224233
 20
72.5192315098
 11
-171.8736716666
 21
78.4192315098
  0
LINE
  8
Layer0$C$L0
 62
     3
 10
-171.8643979546
 20
78.4212026981
 11
-171.8736716666
 21
78.4192315098
  0
LINE
  8
Layer0$C$L0
 62
     3
 10
-171.8643979546
 20
108.0172603214
 11
-171.8736716666
 21
108.0192315098
  0
LINE
  8
Layer0$C$L0
 62
     3
 10
-171.8736716666
 20
108.0192315098
 11
-169.2468224233
 21
113.9192315098
  0
LINE
  8
Layer0$C$L0
 62
     3
 10
-169.2123148389
 20
113.8660944896
 11
-169.2468224233
 21
113.9192315098
  0
LINE
  8
Layer0$C$L0
 62
     3
 10
-157.8761886435
 20
113.9073900642
 11
-157.8736716666
 21
113.9192315098
  0
LINE
  8
Layer0$C$L0
 62
     3
 10
-157.8761886435
 20
72.5310729553
 11
-157.8736716666
 21
72.5192315098
  0
LINE
  8
Layer0$C$L0
 62
     3
 10
-157.8736716666
 20
113.9192315098
 11
-153.5736716666
 21
112.0047481629
  0
LINE
  8
Layer0$C$L0
 62
     3
 10
-153.6603562284
 20
111.9484545502
 11
-153.5736716666
 21
112.0047481629
  0
LINE
  8
Layer0$C$L0
 62
     3
 10
-153.5736716666
 20
74.4337148566
 11
-153.6603562284
 21
74.4900084693
  0
LINE
  8
Layer0$C$L0
 62
     3
 10
-153.5736716666
 20
74.4337148566
 11
-157.8736716666
 21
72.5192315098
  0
LINE
  8
Layer0$C$L0
 62
     3
 10
-148.2736716666
 20
108.4192315098
 11
-148.1736716666
 21
108.3192315098
  0
LINE
  8
Layer0$C$L0
 62
     3
 10
-148.1736716666
 20
78.1192315098
 11
-148.2736716666
 21
78.0192315098
  0
ARC
  8
Layer0$C$L0
 62
     3
 10
-145.5736716666
 20
79.2192315098
 40
0.5000000000
 50
270.0000000000
 51
360.0000000000
  0
LINE
  8
Layer0$C$L0
 62
     3
 10
-172.0736716666
 20
97.9825519731
 11
-171.8736716666
 21
97.9825519731
  0
LINE
  8
Layer0$C$L0
 62
     3
 10
-172.0736716666
 20
99.2856407762
 11
-172.0736716666
 21
97.6061040966
  0
LINE
  8
Layer0$C$L0
 62
     3
 10
-172.0736716666
 20
98.6340963746
 11
-171.8736716666
 21
98.6340963746
  0
LINE
  8
Layer0$C$L0
 62
     3
 10
-172.0736716666
 20
97.6061040966
 11
-171.8736716666
 21
97.6061040966
  0
LINE
  8
Layer0$C$L0
 62
     3
 10
-172.0736716666
 20
99.2856407762
 11
-171.8736716666
 21
99.2856407762
  0
LINE
  8
Layer0$C$L0
 62
     3
 10
-172.0736716666
 20
99.6620886526
 11
-172.0736716666
 21
99.2856407762
  0
LINE
  8
Layer0$C$L0
 62
     3
 10
-172.0736716666
 20
99.6620886526
 11
-171.8736716666
 21
99.6620886526
  0
LINE
  8
Layer0$C$L0
 62
     3
 10
-172.0736716666
 20
86.7856407762
 11
-171.8736716666
 21
86.7856407762
  0
LINE
  8
Layer0$C$L0
 62
     3
 10
-172.0736716666
 20
87.1620886526
 11
-172.0736716666
 21
85.4825519731
  0
LINE
  8
Layer0$C$L0
 62
     3
 10
-172.0736716666
 20
87.1620886526
 11
-171.8736716666
 21
87.1620886526
  0
LINE
  8
Layer0$C$L0
 62
     3
 10
-172.0736716666
 20
86.1340963746
 11
-171.8736716666
 21
86.1340963746
  0
LINE
  8
Layer0$C$L0
 62
     3
 10
-172.0736716666
 20
85.4825519731
 11
-171.8736716666
 21
85.4825519731
  0
LINE
  8
Layer0$C$L0
 62
     3
 10
-172.0736716666
 20
85.1061040966
 11
-171.8736716666
 21
85.1061040966
  0
LINE
  8
Layer0$C$L0
 62
     3
 10
-172.0736716666
 20
85.4825519731
 11
-172.0736716666
 21
85.1061040966
  0
LINE
  8
Layer0$C$L0
 62
     3
 10
-172.0736716666
 20
87.4382576788
 11
-171.8736716666
 21
87.4382576788
  0
LINE
  8
Layer0$C$L0
 62
     3
 10
-172.0736716666
 20
88.9150916556
 11
-172.0736716666
 21
87.4382576788
  0
LINE
  8
Layer0$C$L0
 62
     3
 10
-172.0736716666
 20
88.9150916556
 11
-171.8736716666
 21
88.9150916556
  0
LINE
  8
Layer0$C$L0
 62
     3
 10
-172.0736716666
 20
100.9083348989
 11
-172.0736716666
 21
100.1409603815
  0
LINE
  8
Layer0$C$L0
 62
     3
 10
-172.0736716666
 20
100.9083348989
 11
-171.8736716666
 21
100.9083348989
  0
LINE
  8
Layer0$C$L0
 62
     3
 10
-172.0736716666
 20
100.5656708062
 11
-171.8736716666
 21
100.5656708062
  0
LINE
  8
Layer0$C$L0
 62
     3
 10
-172.0736716666
 20
100.1409603815
 11
-171.8736716666
 21
100.1409603815
  0
LINE
  8
Layer0$C$L0
 62
     3
 10
-171.3736716666
 20
85.9192315098
 11
-171.3736716666
 21
88.1192315098
  0
LINE
  8
Layer0$C$L0
 62
     3
 10
-171.3736716666
 20
98.3192315098
 11
-171.3736716666
 21
100.5192315098
  0
LINE
  8
Layer0$C$L0
 62
     3
 10
-140.3736716666
 20
99.9192315098
 11
-140.3736716666
 21
86.5192315098
  0
LINE
  8
Layer0$C$L0
 62
     3
 10
-142.1736716666
 20
99.9192315098
 11
-142.1736716666
 21
86.5192315098
  0
LINE
  8
Layer0$C$L0
 62
     3
 10
-142.3736716666
 20
86.5192315098
 11
-142.3736716666
 21
99.9192315098
  0
LINE
  8
Layer0$C$L0
 62
     3
 10
-144.0736716666
 20
117.7192315098
 11
-145.8736716666
 21
117.7192315098
  0
LINE
  8
Layer0$C$L0
 62
     3
 10
-145.8736716666
 20
117.7192315098
 11
-146.7272250572
 21
118.5727849003
  0
ARC
  8
Layer0$C$L0
 62
     3
 10
-144.7991939822
 20
118.3003051905
 40
1.0788989391
 50
185.1888179390
 51
212.5870438068
  0
LINE
  8
Layer0$C$L0
 62
     3
 10
-146.5173456094
 20
121.3261293269
 11
-145.8735051453
 21
121.5192814661
  0
ARC
  8
Layer0$C$L0
 62
     3
 10
-145.7269314242
 20
122.1032266167
 40
0.6020596271
 50
255.9095218079
 51
305.9268653496
  0
ARC
  8
Layer0$C$L0
 62
     3
 10
-145.1065265518
 20
120.8710607872
 40
0.7911082947
 50
109.7358720838
 51
165.8617948343
  0
LINE
  8
Layer0$C$L0
 62
     3
 10
-145.8736716666
 20
121.0642982236
 11
-145.8736716666
 21
118.2027314932
  0
LINE
  8
Layer0$C$L0
 62
     3
 10
-137.4736716666
 20
121.7192315098
 11
-145.8736716666
 21
121.7192315098
  0
LINE
  8
Layer0$C$L0
 62
     3
 10
-145.8736716666
 20
121.5192315098
 11
-145.8736716666
 21
121.7192315098
  0
LINE
  8
Layer0$C$L0
 62
     3
 10
-146.8736716666
 20
118.9263382909
 11
-146.8736716666
 21
120.8472161843
  0
ARC
  8
Layer0$C$L0
 62
     3
 10
-146.3736716666
 20
120.8472161843
 40
0.5000000000
 50
106.6992442340
 51
180.0000000000
  0
ARC
  8
Layer0$C$L0
 62
     3
 10
-146.3736716666
 20
118.9263382909
 40
0.5000000000
 50
180.0000000000
 51
225.0000000000
  0
LINE
  8
Layer0$C$L0
 62
     3
 10
-138.5736716666
 20
99.9192315098
 11
-142.5736716666
 21
99.9192315098
  0
LINE
  8
Layer0$C$L0
 62
     3
 10
-142.5736716666
 20
99.9192315098
 11
-142.5736716666
 21
86.5192315098
  0
LINE
  8
Layer0$C$L0
 62
     3
 10
-138.5736716666
 20
86.5192315098
 11
-142.5736716666
 21
86.5192315098
  0
LINE
  8
Layer0$C$L0
 62
     3
 10
-144.2736716666
 20
76.7192315098
 11
-144.2736716666
 21
78.7192315098
  0
ARC
  8
Layer0$C$L0
 62
     3
 10
-144.7736716666
 20
78.7192315098
 40
0.5000000000
 50
0.0000000000
 51
90.0000000000
  0
LINE
  8
Layer0$C$L0
 62
     3
 10
-144.7736716666
 20
79.2192315098
 11
-149.5736716666
 21
79.2192315098
  0
LINE
  8
Layer0$C$L0
 62
     3
 10
-144.7736716666
 20
107.2192315098
 11
-149.5736716666
 21
107.2192315098
  0
ARC
  8
Layer0$C$L0
 62
     3
 10
-144.7736716666
 20
107.7192315098
 40
0.5000000000
 50
270.0000000000
 51
360.0000000000
  0
LINE
  8
Layer0$C$L0
 62
     3
 10
-144.2736716666
 20
107.7192315098
 11
-144.2736716666
 21
109.9192315098
  0
LINE
  8
Layer0$C$L0
 62
     3
 10
-143.5736716666
 20
109.9192315098
 11
-147.0736716666
 21
109.9192315098
  0
LINE
  8
Layer0$C$L0
 62
     3
 10
-144.0736716666
 20
121.2192315098
 11
-144.0736716666
 21
109.9192315098
  0
LINE
  8
Layer0$C$L0
 62
     3
 10
-139.0736716666
 20
76.5192315098
 11
-147.0736716666
 21
76.5192315098
  0
POLYLINE
  8
Layer0$C$L0
 62
     3
 66
     1
  0
VERTEX
  8
Layer0$C$L0
 62
     3
 10
-144.4736716666
 20
76.5192315098
  0
VERTEX
  8
Layer0$C$L0
 62
     3
 10
-144.3751305416
 20
76.5289424831
  0
VERTEX
  8
Layer0$C$L0
 62
     3
 10
-144.3090966944
 20
76.5678878002
  0
VERTEX
  8
Layer0$C$L0
 62
     3
 10
-144.2799344556
 20
76.6359716748
  0
VERTEX
  8
Layer0$C$L0
 62
     3
 10
-144.2736716666
 20
76.7192315098
  0
SEQEND
  8
Layer0$C$L0
 62
     3
  0
LINE
  8
Layer0$C$L0
 62
     3
 10
-142.5736716666
 20
109.9192315098
 11
-142.5736716666
 21
115.9403670448
  0
LINE
  8
Layer0$C$L0
 62
     3
 10
-143.0736716666
 20
109.4192315098
 11
-142.5736716666
 21
109.9192315098
  0
LINE
  8
Layer0$C$L0
 62
     3
 10
-142.5736716666
 20
109.9192315098
 11
-139.0736716666
 21
109.9192315098
  0
LINE
  8
Layer0$C$L0
 62
     3
 10
-138.5736716666
 20
86.5192315098
 11
-138.5736716666
 21
77.0192315098
  0
LINE
  8
Layer0$C$L0
 62
     3
 10
-138.5736716666
 20
109.4192315098
 11
-138.5736716666
 21
99.9192315098
  0
ARC
  8
Layer0$C$L0
 62
     3
 10
-139.0736716666
 20
109.4192315098
 40
0.5000000000
 50
0.0000000000
 51
90.0000000000
  0
ARC
  8
Layer0$C$L0
 62
     3
 10
-139.0736716666
 20
77.0192315098
 40
0.5000000000
 50
270.0000000000
 51
360.0000000000
  0
ARC
  8
Layer0$C$L0
 62
     3
 10
-144.7736716666
 20
78.5192315098
 40
0.5000000000
 50
270.0000000000
 51
360.0000000000
  0
ARC
  8
Layer0$C$L0
 62
     3
 10
-144.7736716666
 20
107.9192315098
 40
0.5000000000
 50
0.0000000000
 51
90.0000000000
  0
ARC
  8
Layer0$C$L0
 62
     3
 10
-143.6278323661
 20
116.0111385091
 40
0.4492696372
 50
83.0759943970
 51
172.9151739896
  0
LINE
  8
Layer0$C$L0
 62
     3
 10
-143.5736716666
 20
116.4571315870
 11
-143.0736716666
 21
116.4571315870
  0
ARC
  8
Layer0$C$L0
 62
     3
 10
-143.0818771546
 20
115.9489203639
 40
0.5082774610
 50
359.0357781806
 51
449.0749929040
  0
LINE
  8
Layer0$C$L0
 62
     3
 10
-151.7736716666
 20
111.1192315098
 11
-151.7736716666
 21
108.4192315098
  0
LINE
  8
Layer0$C$L0
 62
     3
 10
-153.2736716666
 20
109.6192315098
 11
-152.0736716666
 21
108.4192315098
  0
LINE
  8
Layer0$C$L0
 62
     3
 10
-153.2736716666
 20
109.6192315098
 11
-153.2736716666
 21
111.1192315098
  0
LINE
  8
Layer0$C$L0
 62
     3
 10
-153.2736716666
 20
111.1192315098
 11
-151.2736716666
 21
111.1192315098
  0
LINE
  8
Layer0$C$L0
 62
     3
 10
-151.7736716666
 20
78.0192315098
 11
-151.7736716666
 21
75.3192315098
  0
LINE
  8
Layer0$C$L0
 62
     3
 10
-153.2736716666
 20
75.3192315098
 11
-153.2736716666
 21
76.8192315098
  0
LINE
  8
Layer0$C$L0
 62
     3
 10
-152.0736716666
 20
78.0192315098
 11
-153.2736716666
 21
76.8192315098
  0
LINE
  8
Layer0$C$L0
 62
     3
 10
-151.2736716666
 20
75.3192315098
 11
-153.2736716666
 21
75.3192315098
  0
LINE
  8
Layer0$C$L0
 62
     3
 10
-150.6736716666
 20
75.9192315098
 11
-147.0736716666
 21
76.5192315098
  0
LINE
  8
Layer0$C$L0
 62
     3
 10
-151.2736716666
 20
75.3192315098
 11
-150.6736716666
 21
75.9192315098
  0
LINE
  8
Layer0$C$L0
 62
     3
 10
-150.6736716666
 20
110.5192315098
 11
-151.2736716666
 21
111.1192315098
  0
LINE
  8
Layer0$C$L0
 62
     3
 10
-147.0736716666
 20
109.9192315098
 11
-150.6736716666
 21
110.5192315098
  0
LINE
  8
Layer0$C$L0
 62
     3
 10
-144.8667721195
 20
110.1192315098
 11
-144.8667721195
 21
109.9192315098
  0
LINE
  8
Layer0$C$L0
 62
     3
 10
-146.6340661993
 20
110.1192315098
 11
-146.6340661993
 21
109.9192315098
  0
LINE
  8
Layer0$C$L0
 62
     3
 10
-144.8667721195
 20
110.1192315098
 11
-146.6340661993
 21
110.1192315098
  0
ARC
  8
Layer0$C$L0
 62
     3
 10
-143.5736716666
 20
121.2192315098
 40
0.5000000000
 50
90.0000000000
 51
180.0000000000
  0
LINE
  8
Layer0$C$L0
 62
     3
 10
-137.4736716666
 20
106.9669585946
 11
-138.5736716666
 21
106.9669585946
  0
LINE
  8
Layer0$C$L0
 62
     3
 10
-136.9736716666
 20
121.2192315098
 11
-136.9736716666
 21
107.1192315098
  0
POLYLINE
  8
Layer0$C$L0
 62
     3
 66
     1
  0
VERTEX
  8
Layer0$C$L0
 62
     3
 10
-136.9736716666
 20
107.1745172467
  0
VERTEX
  8
Layer0$C$L0
 62
     3
 10
-136.9815227513
 20
107.1394101863
  0
VERTEX
  8
Layer0$C$L0
 62
     3
 10
-137.0057827570
 20
107.1037435194
  0
VERTEX
  8
Layer0$C$L0
 62
     3
 10
-137.0446385188
 20
107.0705709875
  0
VERTEX
  8
Layer0$C$L0
 62
     3
 10
-137.0996751910
 20
107.0391261068
  0
VERTEX
  8
Layer0$C$L0
 62
     3
 10
-137.1639573146
 20
107.0133654783
  0
VERTEX
  8
Layer0$C$L0
 62
     3
 10
-137.2417409400
 20
106.9917149170
  0
VERTEX
  8
Layer0$C$L0
 62
     3
 10
-137.3188936066
 20
106.9776511060
  0
VERTEX
  8
Layer0$C$L0
 62
     3
 10
-137.4039940871
 20
106.9690868329
  0
VERTEX
  8
Layer0$C$L0
 62
     3
 10
-137.4736716666
 20
106.9669585946
  0
SEQEND
  8
Layer0$C$L0
 62
     3
  0
ARC
  8
Layer0$C$L0
 62
     3
 10
-137.4736716666
 20
121.2192315098
 40
0.5000000000
 50
0.0000000000
 51
90.0000000000
  0
LINE
  8
Layer0$C$L0
 62
     3
 10
-144.8449557219
 20
110.1192315098
 11
-144.8449557219
 21
109.9192315098
  0
ARC
  8
Layer0$C$L0
 62
     3
 10
-136.2855450468
 20
120.6140001667
 40
3.9566358505
 50
259.9843540065
 51
268.5178533613
  0
LINE
  8
Layer0$C$L0
 62
     3
 10
-136.0594581042
 20
116.6327520422
 11
-136.3878852289
 21
116.6586880753
  0
ARC
  8
Layer0$C$L0
 62
     3
 10
-136.0181626691
 20
115.6567938559
 40
0.9768314565
 50
56.1234558201
 51
92.4228944041
  0
LINE
  8
Layer0$C$L0
 62
     3
 10
-135.4736716666
 20
121.0085439779
 11
-135.4736716666
 21
113.3629377292
  0
LINE
  8
Layer0$C$L0
 62
     3
 10
-137.7736716666
 20
106.0037756957
 11
-138.5736716666
 21
106.0037756957
  0
LINE
  8
Layer0$C$L0
 62
     3
 10
-137.7736716666
 20
104.7983912809
 11
-138.5736716666
 21
104.7983912809
  0
LINE
  8
Layer0$C$L0
 62
     3
 10
-144.8264243869
 20
110.1192315098
 11
-144.8264243869
 21
109.9192315098
  0
POLYLINE
  8
Layer0$C$L0
 62
     3
 66
     1
  0
VERTEX
  8
Layer0$C$L0
 62
     3
 10
-135.4736716666
 20
113.3629377292
  0
VERTEX
  8
Layer0$C$L0
 62
     3
 10
-135.4832790264
 20
113.3386032844
  0
VERTEX
  8
Layer0$C$L0
 62
     3
 10
-135.5038253562
 20
113.3327840396
  0
SEQEND
  8
Layer0$C$L0
 62
     3
  0
LINE
  8
Layer0$C$L0
 62
     3
 10
-131.9736716666
 20
106.9692315098
 11
-131.9736716666
 21
79.4692315098
  0
LINE
  8
Layer0$C$L0
 62
     3
 10
-132.7736716666
 20
107.1192315098
 11
-132.7736716666
 21
79.3192315098
  0
LINE
  8
Layer0$C$L0
 62
     3
 10
-135.2736716666
 20
101.7098915619
 11
-137.4723229242
 21
101.7098915619
  0
LINE
  8
Layer0$C$L0
 62
     3
 10
-135.2736716666
 20
101.7098915619
 11
-135.2736716666
 21
104.2246252728
  0
LINE
  8
Layer0$C$L0
 62
     3
 10
-137.2736716666
 20
104.2246252728
 11
-135.2736716666
 21
104.2246252728
  0
LINE
  8
Layer0$C$L0
 62
     3
 10
-137.2736716666
 20
106.1126016847
 11
-137.2736716666
 21
104.2246252728
  0
LINE
  8
Layer0$C$L0
 62
     3
 10
-133.5736716666
 20
106.1126016847
 11
-137.2736716666
 21
106.1126016847
  0
LINE
  8
Layer0$C$L0
 62
     3
 10
-133.5736716666
 20
106.1126016847
 11
-133.5736716666
 21
106.9844178705
  0
LINE
  8
Layer0$C$L0
 62
     3
 10
-137.2736716666
 20
106.9844178705
 11
-133.5736716666
 21
106.9844178705
  0
LINE
  8
Layer0$C$L0
 62
     3
 10
-137.2736716666
 20
79.4565645582
 11
-137.2736716666
 21
79.3192315098
  0
LINE
  8
Layer0$C$L0
 62
     3
 10
-133.5736716666
 20
79.4565645582
 11
-137.2736716666
 21
79.4565645582
  0
LINE
  8
Layer0$C$L0
 62
     3
 10
-133.5736716666
 20
79.4565645582
 11
-133.5736716666
 21
80.3326160625
  0
LINE
  8
Layer0$C$L0
 62
     3
 10
-137.2736716666
 20
80.3326160625
 11
-133.5736716666
 21
80.3326160625
  0
LINE
  8
Layer0$C$L0
 62
     3
 10
-137.2736716666
 20
82.2138377468
 11
-137.2736716666
 21
80.3326160625
  0
LINE
  8
Layer0$C$L0
 62
     3
 10
-135.2736716666
 20
82.2138377468
 11
-137.2736716666
 21
82.2138377468
  0
LINE
  8
Layer0$C$L0
 62
     3
 10
-135.2736716666
 20
82.2138377468
 11
-135.2736716666
 21
84.7285714576
  0
LINE
  8
Layer0$C$L0
 62
     3
 10
-137.4723229242
 20
84.7285714576
 11
-135.2736716666
 21
84.7285714576
  0
LINE
  8
Layer0$C$L0
 62
     3
 10
-137.2736716666
 20
88.0258698304
 11
-137.2736716666
 21
84.7285714576
  0
LINE
  8
Layer0$C$L0
 62
     3
 10
-133.5736716666
 20
88.0258698304
 11
-137.2736716666
 21
88.0258698304
  0
LINE
  8
Layer0$C$L0
 62
     3
 10
-133.5736716666
 20
88.0258698304
 11
-133.5736716666
 21
91.2880027676
  0
LINE
  8
Layer0$C$L0
 62
     3
 10
-137.2736716666
 20
91.2880027676
 11
-133.5736716666
 21
91.2880027676
  0
LINE
  8
Layer0$C$L0
 62
     3
 10
-137.2736716666
 20
95.1683334519
 11
-137.2736716666
 21
91.2880027676
  0
LINE
  8
Layer0$C$L0
 62
     3
 10
-133.5736716666
 20
95.1683334519
 11
-137.2736716666
 21
95.1683334519
  0
LINE
  8
Layer0$C$L0
 62
     3
 10
-133.5736716666
 20
95.1683334519
 11
-133.5736716666
 21
98.4293315389
  0
LINE
  8
Layer0$C$L0
 62
     3
 10
-137.2736716666
 20
98.4293315389
 11
-133.5736716666
 21
98.4293315389
  0
LINE
  8
Layer0$C$L0
 62
     3
 10
-137.2736716666
 20
101.7098915619
 11
-137.2736716666
 21
98.4293315389
  0
LINE
  8
Layer0$C$L0
 62
     3
 10
-137.4540739454
 20
91.1385139022
 11
-137.2736716666
 21
91.2880027676
  0
LINE
  8
Layer0$C$L0
 62
     3
 10
-137.4540739454
 20
91.1385139022
 11
-137.7736716666
 21
91.2217427557
  0
LINE
  8
Layer0$C$L0
 62
     3
 10
-137.7736716666
 20
95.2167202638
 11
-137.4724867213
 21
95.2951547604
  0
LINE
  8
Layer0$C$L0
 62
     3
 10
-137.2736716666
 20
95.1683334519
 11
-137.4724867213
 21
95.2951547604
  0
LINE
  8
Layer0$C$L0
 62
     3
 10
-137.7736716666
 20
84.9431584985
 11
-137.7736716666
 21
101.4953045210
  0
LINE
  8
Layer0$C$L0
 62
     3
 10
-133.5736716666
 20
88.3239652768
 11
-137.7736716666
 21
88.3239652768
  0
LINE
  8
Layer0$C$L0
 62
     3
 10
-133.5736716666
 20
98.1144977427
 11
-137.7736716666
 21
98.1144977427
  0
LINE
  8
Layer0$C$L0
 62
     3
 10
-133.5736716666
 20
91.1385139022
 11
-137.4540739454
 21
91.1385139022
  0
LINE
  8
Layer0$C$L0
 62
     3
 10
-137.4724867213
 20
95.2951547604
 11
-133.5736716666
 21
95.2951547604
  0
LINE
  8
Layer0$C$L0
 62
     3
 10
-137.7736716666
 20
101.4953045210
 11
-137.4723229242
 21
101.7098915619
  0
LINE
  8
Layer0$C$L0
 62
     3
 10
-137.4540739454
 20
98.1977265962
 11
-137.2736716666
 21
98.4293315389
  0
LINE
  8
Layer0$C$L0
 62
     3
 10
-137.4540739454
 20
98.1977265962
 11
-137.7736716666
 21
98.1144977427
  0
LINE
  8
Layer0$C$L0
 62
     3
 10
-137.4723229242
 20
84.7285714576
 11
-137.7736716666
 21
84.9431584985
  0
LINE
  8
Layer0$C$L0
 62
     3
 10
-137.7736716666
 20
88.3239652768
 11
-137.4724867213
 21
88.2455307802
  0
LINE
  8
Layer0$C$L0
 62
     3
 10
-137.2736716666
 20
88.0258698304
 11
-137.4724867213
 21
88.2455307802
  0
LINE
  8
Layer0$C$L0
 62
     3
 10
-133.5736716666
 20
98.1977265962
 11
-137.4540739454
 21
98.1977265962
  0
LINE
  8
Layer0$C$L0
 62
     3
 10
-137.4724867213
 20
88.2455307802
 11
-133.5736716666
 21
88.2455307802
  0
POLYLINE
  8
Layer0$C$L0
 62
     3
 66
     1
  0
VERTEX
  8
Layer0$C$L0
 62
     3
 10
-137.5736716666
 20
83.6069998545
  0
VERTEX
  8
Layer0$C$L0
 62
     3
 10
-137.6394353345
 20
83.6149335762
  0
VERTEX
  8
Layer0$C$L0
 62
     3
 10
-137.6977816260
 20
83.6377946295
  0
VERTEX
  8
Layer0$C$L0
 62
     3
 10
-137.7424160076
 20
83.6730938120
  0
VERTEX
  8
Layer0$C$L0
 62
     3
 10
-137.7684059564
 20
83.7171632931
  0
VERTEX
  8
Layer0$C$L0
 62
     3
 10
-137.7736716666
 20
83.7496953940
  0
SEQEND
  8
Layer0$C$L0
 62
     3
  0
LINE
  8
Layer0$C$L0
 62
     3
 10
-137.7736716666
 20
82.6804167987
 11
-137.7736716666
 21
84.9369441310
  0
LINE
  8
Layer0$C$L0
 62
     3
 10
-135.2736716666
 20
83.6069998545
 11
-137.5736716666
 21
83.6069998545
  0
POLYLINE
  8
Layer0$C$L0
 62
     3
 66
     1
  0
VERTEX
  8
Layer0$C$L0
 62
     3
 10
-137.7736716666
 20
102.6887676255
  0
VERTEX
  8
Layer0$C$L0
 62
     3
 10
-137.7622393601
 20
102.7363257234
  0
VERTEX
  8
Layer0$C$L0
 62
     3
 10
-137.7291582022
 20
102.7785233032
  0
VERTEX
  8
Layer0$C$L0
 62
     3
 10
-137.6783067015
 20
102.8103790502
  0
VERTEX
  8
Layer0$C$L0
 62
     3
 10
-137.6158746865
 20
102.8282505312
  0
VERTEX
  8
Layer0$C$L0
 62
     3
 10
-137.5736716666
 20
102.8314631650
  0
SEQEND
  8
Layer0$C$L0
 62
     3
  0
LINE
  8
Layer0$C$L0
 62
     3
 10
-137.7736716666
 20
101.5143832576
 11
-137.7736716666
 21
106.6192315098
  0
LINE
  8
Layer0$C$L0
 62
     3
 10
-135.2736716666
 20
102.8314631650
 11
-137.5736716666
 21
102.8314631650
  0
LINE
  8
Layer0$C$L0
 62
     3
 10
-137.4540739454
 20
80.4347898597
 11
-137.2736716666
 21
80.3326160625
  0
LINE
  8
Layer0$C$L0
 62
     3
 10
-137.4540739454
 20
80.4347898597
 11
-137.7736716666
 21
80.7454041697
  0
LINE
  8
Layer0$C$L0
 62
     3
 10
-137.7736716666
 20
82.6804167987
 11
-137.4723229242
 21
82.4658297578
  0
LINE
  8
Layer0$C$L0
 62
     3
 10
-137.2736716666
 20
82.2138377468
 11
-137.4723229242
 21
82.4658297578
  0
LINE
  8
Layer0$C$L0
 62
     3
 10
-137.7736716666
 20
79.8192315098
 11
-137.7736716666
 21
82.6804167987
  0
LINE
  8
Layer0$C$L0
 62
     3
 10
-137.4723229242
 20
82.4658297578
 11
-135.2736716666
 21
82.4658297578
  0
LINE
  8
Layer0$C$L0
 62
     3
 10
-137.4723229242
 20
103.9726332617
 11
-137.2736716666
 21
104.2246252728
  0
LINE
  8
Layer0$C$L0
 62
     3
 10
-137.4723229242
 20
103.9726332617
 11
-137.7736716666
 21
103.7580462208
  0
LINE
  8
Layer0$C$L0
 62
     3
 10
-137.7736716666
 20
105.6930588498
 11
-137.4724867213
 21
105.9857803762
  0
LINE
  8
Layer0$C$L0
 62
     3
 10
-137.2736716666
 20
106.1126016847
 11
-137.4724867213
 21
105.9857803762
  0
LINE
  8
Layer0$C$L0
 62
     3
 10
-135.2736716666
 20
103.9726332617
 11
-137.4723229242
 21
103.9726332617
  0
LINE
  8
Layer0$C$L0
 62
     3
 10
-133.5736716666
 20
79.9689470344
 11
-137.7736716666
 21
79.9689470344
  0
LINE
  8
Layer0$C$L0
 62
     3
 10
-133.5736716666
 20
106.4695159851
 11
-137.7736716666
 21
106.4695159851
  0
LINE
  8
Layer0$C$L0
 62
     3
 10
-137.7736716666
 20
79.9689470344
 11
-137.4724867213
 21
79.6762255080
  0
LINE
  8
Layer0$C$L0
 62
     3
 10
-137.2736716666
 20
79.4565645582
 11
-137.4724867213
 21
79.6762255080
  0
LINE
  8
Layer0$C$L0
 62
     3
 10
-137.4540739454
 20
106.7801302951
 11
-137.2736716666
 21
106.9844178705
  0
LINE
  8
Layer0$C$L0
 62
     3
 10
-137.4540739454
 20
106.7801302951
 11
-137.7736716666
 21
106.4695159851
  0
LINE
  8
Layer0$C$L0
 62
     3
 10
-133.5736716666
 20
106.7801302951
 11
-137.4540739454
 21
106.7801302951
  0
LINE
  8
Layer0$C$L0
 62
     3
 10
-137.4724867213
 20
79.6762255080
 11
-133.5736716666
 21
79.6762255080
  0
LINE
  8
Layer0$C$L0
 62
     3
 10
-131.4736716666
 20
107.2192315098
 11
-131.4736716666
 21
79.2192315098
  0
LINE
  8
Layer0$C$L0
 62
     3
 10
-129.4736716666
 20
104.2192315098
 11
-129.4736716666
 21
82.2192315098
  0
LINE
  8
Layer0$C$L0
 62
     3
 10
-140.2736716666
 20
86.5192315098
 11
-140.2736716666
 21
99.9192315098
  0
LINE
  8
Layer0$C$L0
 62
     3
 10
-139.9561290185
 20
99.9192315098
 11
-139.9561290185
 21
86.5192315098
  0
LINE
  8
Layer0$C$L0
 62
     3
 10
-137.7736716666
 20
104.1022457981
 11
-138.5736716666
 21
104.1022457981
  0
LINE
  8
Layer0$C$L0
 62
     3
 10
-137.7736716666
 20
82.3362172214
 11
-138.5736716666
 21
82.3362172214
  0
LINE
  8
Layer0$C$L0
 62
     3
 10
-132.7736716666
 20
103.9192315098
 11
-132.0736716666
 21
103.9192315098
  0
ARC
  8
Layer0$C$L0
 62
     3
 10
-132.0734609312
 20
104.2168905368
 40
0.2976591017
 50
269.9594359834
 51
289.5875470920
  0
LINE
  8
Layer0$C$L0
 62
     3
 10
-140.2736716666
 20
97.7192315098
 11
-140.3736716666
 21
97.7192315098
  0
LINE
  8
Layer0$C$L0
 62
     3
 10
-140.2736716666
 20
89.0192315098
 11
-140.3736716666
 21
89.0192315098
  0
LINE
  8
Layer0$C$L0
 62
     3
 10
-132.2736716666
 20
103.9192315098
 11
-132.2736716666
 21
105.7192315098
  0
LINE
  8
Layer0$C$L0
 62
     3
 10
-132.7736716666
 20
105.7192315098
 11
-132.2736716666
 21
105.7192315098
  0
ARC
  8
Layer0$C$L0
 62
     3
 10
-160.9772262685
 20
151.5364711395
 40
3.4911361546
 50
334.0270554024
 51
385.8598859003
  0
LINE
  8
Layer0$C$L0
 62
     3
 10
-158.3265230499
 20
154.0361696463
 11
-158.4247179619
 21
154.0361696463
  0
LINE
  8
Layer0$C$L0
 62
     3
 10
-158.4247179619
 20
149.0361696463
 11
-158.3265230499
 21
149.0361696463
  0
LINE
  8
Layer0$C$L0
 62
     3
 10
-158.1852025384
 20
173.2861696463
 11
-160.0517404172
 21
173.2861696463
  0
LINE
  8
Layer0$C$L0
 62
     3
 10
-160.0517404172
 20
169.7861696463
 11
-158.1852025384
 21
169.7861696463
  0
LINE
  8
Layer0$C$L0
 62
     3
 10
-162.4236716666
 20
158.4361696463
 11
-161.3736716666
 21
158.4361696463
  0
LINE
  8
Layer0$C$L0
 62
     3
 10
-161.3736716666
 20
164.6361696463
 11
-162.4236716666
 21
164.6361696463
  0
LINE
  8
Layer0$C$L0
 62
     3
 10
-162.4236716666
 20
164.5361696463
 11
-163.4736716666
 21
164.4443065496
  0
LINE
  8
Layer0$C$L0
 62
     3
 10
-163.4736716666
 20
158.6280327430
 11
-162.4236716666
 21
158.5361696463
  0
LINE
  8
Layer0$C$L0
 62
     3
 10
-159.8736716666
 20
163.2861696463
 11
-159.9360328291
 21
163.2861696463
  0
LINE
  8
Layer0$C$L0
 62
     3
 10
-159.9360328291
 20
159.7861696463
 11
-159.8736716666
 21
159.7861696463
  0
LINE
  8
Layer0$C$L0
 62
     3
 10
-159.9360328291
 20
163.2861696463
 11
-160.1236716666
 21
162.9611696463
  0
LINE
  8
Layer0$C$L0
 62
     3
 10
-160.1236716666
 20
160.1111696463
 11
-159.9360328291
 21
159.7861696463
  0
LINE
  8
Layer0$C$L0
 62
     3
 10
-160.1236716666
 20
162.8361696463
 11
-160.3736716666
 21
162.8361696463
  0
LINE
  8
Layer0$C$L0
 62
     3
 10
-160.3736716666
 20
160.2361696463
 11
-160.1236716666
 21
160.2361696463
  0
LINE
  8
Layer0$C$L0
 62
     3
 10
-158.1852025384
 20
153.2861696463
 11
-160.0517404172
 21
153.2861696463
  0
LINE
  8
Layer0$C$L0
 62
     3
 10
-160.0517404172
 20
149.7861696463
 11
-158.1852025384
 21
149.7861696463
  0
ARC
  8
Layer0$C$L0
 62
     3
 10
-160.9772262685
 20
171.5364711395
 40
3.4911361546
 50
334.0270554024
 51
385.8598859003
  0
LINE
  8
Layer0$C$L0
 62
     3
 10
-158.3265230499
 20
174.0361696463
 11
-158.4247179619
 21
174.0361696463
  0
LINE
  8
Layer0$C$L0
 62
     3
 10
-158.4247179619
 20
169.0361696463
 11
-158.3265230499
 21
169.0361696463
  0
LINE
  8
Layer0$C$L0
 62
     3
 10
-135.9736716666
 20
175.7168644274
 11
-143.5736716666
 21
175.7168644274
  0
ARC
  8
Layer0$C$L0
 62
     3
 10
-135.9736716666
 20
175.2168644274
 40
0.5000000000
 50
0.0000000000
 51
90.0000000000
  0
LINE
  8
Layer0$C$L0
 62
     3
 10
-131.9736716666
 20
147.7861696463
 11
-131.4736716666
 21
147.7861696463
  0
LINE
  8
Layer0$C$L0
 62
     3
 10
-131.4736716666
 20
175.2861696463
 11
-131.9736716666
 21
175.2861696463
  0
LINE
  8
Layer0$C$L0
 62
     3
 10
-132.7736716666
 20
175.4361696463
 11
-135.5243330181
 21
175.4361696463
  0
LINE
  8
Layer0$C$L0
 62
     3
 10
-137.2736716666
 20
147.6361696463
 11
-132.7736716666
 21
147.6361696463
  0
LINE
  8
Layer0$C$L0
 62
     3
 10
-137.7736716666
 20
148.1361696463
 11
-137.2736716666
 21
147.6361696463
  0
ARC
  8
Layer0$C$L0
 62
     3
 10
-131.0121881473
 20
175.0361696463
 40
0.5000000000
 50
21.8014094863
 51
90.0000000000
  0
ARC
  8
Layer0$C$L0
 62
     3
 10
-131.0121881473
 20
148.0361696463
 40
0.5000000000
 50
270.0000000000
 51
338.1985905137
  0
LINE
  8
Layer0$C$L0
 62
     3
 10
-131.4736716666
 20
147.5361696463
 11
-131.0121881473
 21
147.5361696463
  0
LINE
  8
Layer0$C$L0
 62
     3
 10
-131.0121881473
 20
175.5361696463
 11
-131.4736716666
 21
175.5361696463
  0
LINE
  8
Layer0$C$L0
 62
     3
 10
-130.5479498018
 20
147.8504743081
 11
-129.4736716666
 21
150.5361696463
  0
LINE
  8
Layer0$C$L0
 62
     3
 10
-129.4736716666
 20
172.5361696463
 11
-130.5479498018
 21
175.2218649844
  0
LINE
  8
Layer0$C$L0
 62
     3
 10
-131.9736716666
 20
172.5361696463
 11
-132.7736716666
 21
172.5361696463
  0
LINE
  8
Layer0$C$L0
 62
     3
 10
-132.7736716666
 20
150.5361696463
 11
-131.9736716666
 21
150.5361696463
  0
LINE
  8
Layer0$C$L0
 62
     3
 10
-138.5736716666
 20
150.5361696463
 11
-137.7736716666
 21
150.5361696463
  0
LINE
  8
Layer0$C$L0
 62
     3
 10
-159.3363861601
 20
155.0361696463
 11
-159.3363861601
 21
153.2861696463
  0
LINE
  8
Layer0$C$L0
 62
     3
 10
-159.1399963361
 20
155.0361696463
 11
-159.1399963361
 21
153.3130773967
  0
LINE
  8
Layer0$C$L0
 62
     3
 10
-159.8564459907
 20
155.0361696463
 11
-158.7332596930
 21
155.0361696463
  0
LINE
  8
Layer0$C$L0
 62
     3
 10
-158.9296495170
 20
155.0361696463
 11
-158.9296495170
 21
153.7061634288
  0
ARC
  8
Layer0$C$L0
 62
     3
 10
-158.0959707996
 20
153.1313527987
 40
1.0126339241
 50
129.0012898622
 51
145.4142420103
  0
LINE
  8
Layer0$C$L0
 62
     3
 10
-158.7332596930
 20
155.0361696463
 11
-158.7332596930
 21
153.9183028166
  0
LINE
  8
Layer0$C$L0
 62
     3
 10
-158.7332596930
 20
155.0361696463
 11
-156.7470905082
 21
155.0361696463
  0
LINE
  8
Layer0$C$L0
 62
     3
 10
-158.5229128739
 20
155.0361696463
 11
-158.5229128739
 21
154.0244854881
  0
ARC
  8
Layer0$C$L0
 62
     3
 10
-158.4247179619
 20
153.6168942330
 40
0.4192527543
 50
76.4546980310
 51
103.5453019690
  0
LINE
  8
Layer0$C$L0
 62
     3
 10
-158.3265230499
 20
155.0361696463
 11
-158.3265230499
 21
154.0244854881
  0
LINE
  8
Layer0$C$L0
 62
     3
 10
-158.1161762308
 20
155.0361696463
 11
-158.1161762308
 21
153.9183028166
  0
ARC
  8
Layer0$C$L0
 62
     3
 10
-158.7534651242
 20
153.1313527987
 40
1.0126339241
 50
34.5857579897
 51
50.9987101378
  0
LINE
  8
Layer0$C$L0
 62
     3
 10
-157.9197864068
 20
155.0361696463
 11
-157.9197864068
 21
153.7061634288
  0
LINE
  8
Layer0$C$L0
 62
     3
 10
-157.7094395878
 20
155.0361696463
 11
-157.7094395878
 21
153.3130773967
  0
ARC
  8
Layer0$C$L0
 62
     3
 10
-161.1322165652
 20
151.9456437464
 40
3.6858210789
 50
10.9129252230
 51
21.7772031605
  0
LINE
  8
Layer0$C$L0
 62
     3
 10
-157.5130497638
 20
155.0361696463
 11
-157.5130497638
 21
152.6434321733
  0
LINE
  8
Layer0$C$L0
 62
     3
 10
-156.8791187182
 20
154.5361696463
 11
-157.0824870398
 21
155.0361696463
  0
LINE
  8
Layer0$C$L0
 62
     3
 10
-156.8791187182
 20
153.9361696463
 11
-156.8791187182
 21
154.5361696463
  0
LINE
  8
Layer0$C$L0
 62
     3
 10
-157.0418133755
 20
153.9361696463
 11
-156.7470905082
 21
153.9361696463
  0
POLYLINE
  8
Layer0$C$L0
 62
     3
 66
     1
  0
VERTEX
  8
Layer0$C$L0
 62
     3
 10
-157.2045080327
 20
153.5361696463
  0
VERTEX
  8
Layer0$C$L0
 62
     3
 10
-157.2013819005
 20
153.6142057751
  0
VERTEX
  8
Layer0$C$L0
 62
     3
 10
-157.1921236393
 20
153.6892430192
  0
VERTEX
  8
Layer0$C$L0
 62
     3
 10
-157.1770890390
 20
153.7583977395
  0
VERTEX
  8
Layer0$C$L0
 62
     3
 10
-157.1568558709
 20
153.8190123587
  0
VERTEX
  8
Layer0$C$L0
 62
     3
 10
-157.1322016841
 20
153.8687574912
  0
VERTEX
  8
Layer0$C$L0
 62
     3
 10
-157.1040739253
 20
153.9057214593
  0
VERTEX
  8
Layer0$C$L0
 62
     3
 10
-157.0735535285
 20
153.9284837584
  0
VERTEX
  8
Layer0$C$L0
 62
     3
 10
-157.0418133755
 20
153.9361696463
  0
SEQEND
  8
Layer0$C$L0
 62
     3
  0
POLYLINE
  8
Layer0$C$L0
 62
     3
 66
     1
  0
VERTEX
  8
Layer0$C$L0
 62
     3
 10
-157.0418133755
 20
149.1361696463
  0
VERTEX
  8
Layer0$C$L0
 62
     3
 10
-157.0735535285
 20
149.1438555341
  0
VERTEX
  8
Layer0$C$L0
 62
     3
 10
-157.1040739253
 20
149.1666178333
  0
VERTEX
  8
Layer0$C$L0
 62
     3
 10
-157.1322016841
 20
149.2035818014
  0
VERTEX
  8
Layer0$C$L0
 62
     3
 10
-157.1568558709
 20
149.2533269338
  0
VERTEX
  8
Layer0$C$L0
 62
     3
 10
-157.1770890390
 20
149.3139415531
  0
VERTEX
  8
Layer0$C$L0
 62
     3
 10
-157.1921236393
 20
149.3830962733
  0
VERTEX
  8
Layer0$C$L0
 62
     3
 10
-157.2013819005
 20
149.4581335175
  0
VERTEX
  8
Layer0$C$L0
 62
     3
 10
-157.2045080327
 20
149.5361696463
  0
SEQEND
  8
Layer0$C$L0
 62
     3
  0
LINE
  8
Layer0$C$L0
 62
     3
 10
-157.0418133755
 20
149.1361696463
 11
-156.7470905082
 21
149.1361696463
  0
LINE
  8
Layer0$C$L0
 62
     3
 10
-156.8791187182
 20
148.5361696463
 11
-156.8791187182
 21
149.1361696463
  0
LINE
  8
Layer0$C$L0
 62
     3
 10
-157.0824870398
 20
148.0361696463
 11
-156.8791187182
 21
148.5361696463
  0
LINE
  8
Layer0$C$L0
 62
     3
 10
-157.7094395878
 20
148.0361696463
 11
-156.7470905082
 21
148.0361696463
  0
LINE
  8
Layer0$C$L0
 62
     3
 10
-157.5130497638
 20
150.4289071192
 11
-157.5130497638
 21
148.0361696463
  0
ARC
  8
Layer0$C$L0
 62
     3
 10
-161.1322165653
 20
151.1266955462
 40
3.6858210789
 50
338.2227968396
 51
349.0870747770
  0
LINE
  8
Layer0$C$L0
 62
     3
 10
-157.7094395878
 20
149.7592618958
 11
-157.7094395878
 21
148.0361696463
  0
LINE
  8
Layer0$C$L0
 62
     3
 10
-158.7332596930
 20
148.0361696463
 11
-157.7094395878
 21
148.0361696463
  0
LINE
  8
Layer0$C$L0
 62
     3
 10
-157.9197864068
 20
149.3661758637
 11
-157.9197864068
 21
148.0361696463
  0
ARC
  8
Layer0$C$L0
 62
     3
 10
-158.7534651242
 20
149.9409864938
 40
1.0126339241
 50
309.0012898622
 51
325.4142420102
  0
LINE
  8
Layer0$C$L0
 62
     3
 10
-158.1161762308
 20
149.1540364759
 11
-158.1161762308
 21
148.0361696463
  0
LINE
  8
Layer0$C$L0
 62
     3
 10
-158.3265230499
 20
149.0478538044
 11
-158.3265230499
 21
148.0361696463
  0
ARC
  8
Layer0$C$L0
 62
     3
 10
-158.4247179619
 20
149.4554450595
 40
0.4192527543
 50
256.4546980310
 51
283.5453019690
  0
LINE
  8
Layer0$C$L0
 62
     3
 10
-158.5229128739
 20
149.0478538044
 11
-158.5229128739
 21
148.0361696463
  0
LINE
  8
Layer0$C$L0
 62
     3
 10
-158.7332596930
 20
149.1540364759
 11
-158.7332596930
 21
148.0361696463
  0
ARC
  8
Layer0$C$L0
 62
     3
 10
-158.0959707996
 20
149.9409864938
 40
1.0126339241
 50
214.5857579898
 51
230.9987101378
  0
LINE
  8
Layer0$C$L0
 62
     3
 10
-158.9296495170
 20
149.3661758637
 11
-158.9296495170
 21
148.0361696463
  0
LINE
  8
Layer0$C$L0
 62
     3
 10
-159.8482962127
 20
148.0361696463
 11
-158.7332596930
 21
148.0361696463
  0
LINE
  8
Layer0$C$L0
 62
     3
 10
-159.1399963361
 20
149.7592618958
 11
-159.1399963361
 21
148.0361696463
  0
LINE
  8
Layer0$C$L0
 62
     3
 10
-159.3363861601
 20
149.7861696463
 11
-159.3363861601
 21
148.0361696463
  0
LINE
  8
Layer0$C$L0
 62
     3
 10
-156.7470905082
 20
154.5361696463
 11
-156.8791187182
 21
154.5361696463
  0
LINE
  8
Layer0$C$L0
 62
     3
 10
-156.8791187182
 20
148.5361696463
 11
-156.7470905082
 21
148.5361696463
  0
LINE
  8
Layer0$C$L0
 62
     3
 10
-156.7470905082
 20
149.9361696463
 11
-156.9438998684
 21
149.9361696463
  0
POLYLINE
  8
Layer0$C$L0
 62
     3
 66
     1
  0
VERTEX
  8
Layer0$C$L0
 62
     3
 10
-157.2045080327
 20
149.5361696463
  0
VERTEX
  8
Layer0$C$L0
 62
     3
 10
-157.1950898663
 20
149.6682848701
  0
VERTEX
  8
Layer0$C$L0
 62
     3
 10
-157.1646614451
 20
149.7855420045
  0
VERTEX
  8
Layer0$C$L0
 62
     3
 10
-157.1094465271
 20
149.8734807034
  0
VERTEX
  8
Layer0$C$L0
 62
     3
 10
-157.0316028519
 20
149.9226373166
  0
VERTEX
  8
Layer0$C$L0
 62
     3
 10
-156.9438998684
 20
149.9361696463
  0
SEQEND
  8
Layer0$C$L0
 62
     3
  0
POLYLINE
  8
Layer0$C$L0
 62
     3
 66
     1
  0
VERTEX
  8
Layer0$C$L0
 62
     3
 10
-157.2045080327
 20
153.5361696463
  0
VERTEX
  8
Layer0$C$L0
 62
     3
 10
-157.1950898663
 20
153.4040544224
  0
VERTEX
  8
Layer0$C$L0
 62
     3
 10
-157.1646614451
 20
153.2867972881
  0
VERTEX
  8
Layer0$C$L0
 62
     3
 10
-157.1094465271
 20
153.1988585892
  0
VERTEX
  8
Layer0$C$L0
 62
     3
 10
-157.0316028519
 20
153.1497019760
  0
VERTEX
  8
Layer0$C$L0
 62
     3
 10
-156.9438998684
 20
153.1361696463
  0
SEQEND
  8
Layer0$C$L0
 62
     3
  0
LINE
  8
Layer0$C$L0
 62
     3
 10
-156.7470905082
 20
153.1361696463
 11
-156.9438998684
 21
153.1361696463
  0
ARC
  8
Layer0$C$L0
 62
     3
 10
-159.4720352040
 20
150.9587751506
 40
2.9410002334
 50
48.2336171437
 51
53.1789012691
  0
ARC
  8
Layer0$C$L0
 62
     3
 10
-159.4720352040
 20
152.1135641419
 40
2.9410002333
 50
306.8210987309
 51
311.7663828563
  0
ARC
  8
Layer0$C$L0
 62
     3
 10
-159.0636182623
 20
153.0846684095
 40
4.0432058815
 50
283.5520968439
 51
286.8623771839
  0
ARC
  8
Layer0$C$L0
 62
     3
 10
-159.0636182623
 20
149.9876708830
 40
4.0432058815
 50
73.1376228161
 51
76.4479031561
  0
LINE
  8
Layer0$C$L0
 62
     3
 10
-166.3736716666
 20
153.5361696463
 11
-160.0858902414
 21
153.5361696463
  0
LINE
  8
Layer0$C$L0
 62
     3
 10
-171.8736716666
 20
151.5361696463
 11
-166.3736716666
 21
151.5361696463
  0
POLYLINE
  8
Layer0$C$L0
 62
     3
 66
     1
  0
VERTEX
  8
Layer0$C$L0
 62
     3
 10
-169.3159124410
 20
150.7241980529
  0
VERTEX
  8
Layer0$C$L0
 62
     3
 10
-169.2614867195
 20
151.3189619910
  0
VERTEX
  8
Layer0$C$L0
 62
     3
 10
-169.2560730241
 20
151.5361696463
  0
SEQEND
  8
Layer0$C$L0
 62
     3
  0
LINE
  8
Layer0$C$L0
 62
     3
 10
-166.3736716666
 20
151.5361696463
 11
-166.3736716666
 21
153.5361696463
  0
LINE
  8
Layer0$C$L0
 62
     3
 10
-157.9027849657
 20
147.6361696463
 11
-157.9027849657
 21
146.8361696463
  0
ARC
  8
Layer0$C$L0
 62
     3
 10
-158.3034574503
 20
146.7645581682
 40
0.4070216747
 50
325.8666229632
 51
370.1333770368
  0
LINE
  8
Layer0$C$L0
 62
     3
 10
-150.0736716666
 20
146.5361696463
 11
-171.5736716666
 21
146.5361696463
  0
LINE
  8
Layer0$C$L0
 62
     3
 10
-162.1461606047
 20
147.9361696463
 11
-153.8736716666
 21
147.9361696463
  0
ARC
  8
Layer0$C$L0
 62
     3
 10
-158.3034574503
 20
147.7077811244
 40
0.4070216747
 50
349.8666229632
 51
394.1333770368
  0
LINE
  8
Layer0$C$L0
 62
     3
 10
-160.0858902414
 20
148.9361696463
 11
-160.0858902414
 21
154.1361696463
  0
POLYLINE
  8
Layer0$C$L0
 62
     3
 66
     1
  0
VERTEX
  8
Layer0$C$L0
 62
     3
 10
-160.0858902414
 20
148.9361696463
  0
VERTEX
  8
Layer0$C$L0
 62
     3
 10
-160.0780749109
 20
148.7410793243
  0
VERTEX
  8
Layer0$C$L0
 62
     3
 10
-160.0549292580
 20
148.5534862139
  0
VERTEX
  8
Layer0$C$L0
 62
     3
 10
-160.0173427573
 20
148.3805994133
  0
VERTEX
  8
Layer0$C$L0
 62
     3
 10
-159.9667598368
 20
148.2290628651
  0
VERTEX
  8
Layer0$C$L0
 62
     3
 10
-159.9051243699
 20
148.1047000340
  0
VERTEX
  8
Layer0$C$L0
 62
     3
 10
-159.8348049730
 20
148.0122901138
  0
VERTEX
  8
Layer0$C$L0
 62
     3
 10
-159.7585039810
 20
147.9553843659
  0
VERTEX
  8
Layer0$C$L0
 62
     3
 10
-159.6791535983
 20
147.9361696463
  0
SEQEND
  8
Layer0$C$L0
 62
     3
  0
LINE
  8
Layer0$C$L0
 62
     3
 10
-171.8736716666
 20
146.8361696463
 11
-171.8736716666
 21
156.2361696463
  0
ARC
  8
Layer0$C$L0
 62
     3
 10
-165.5316126311
 20
151.2329844752
 40
4.9837296714
 50
176.5122579672
 51
209.0181916695
  0
POLYLINE
  8
Layer0$C$L0
 62
     3
 66
     1
  0
VERTEX
  8
Layer0$C$L0
 62
     3
 10
-171.8736716666
 20
151.3279549998
  0
VERTEX
  8
Layer0$C$L0
 62
     3
 10
-171.8445524863
 20
150.8322895698
  0
VERTEX
  8
Layer0$C$L0
 62
     3
 10
-171.7843348686
 20
150.3538643669
  0
VERTEX
  8
Layer0$C$L0
 62
     3
 10
-171.6944937315
 20
149.9043975225
  0
VERTEX
  8
Layer0$C$L0
 62
     3
 10
-171.5772295657
 20
149.4948978871
  0
VERTEX
  8
Layer0$C$L0
 62
     3
 10
-171.4354145378
 20
149.1353953889
  0
VERTEX
  8
Layer0$C$L0
 62
     3
 10
-171.2725221419
 20
148.8346953699
  0
VERTEX
  8
Layer0$C$L0
 62
     3
 10
-171.0925421230
 20
148.6001629151
  0
VERTEX
  8
Layer0$C$L0
 62
     3
 10
-170.8998827552
 20
148.4375424589
  0
VERTEX
  8
Layer0$C$L0
 62
     3
 10
-170.6992628696
 20
148.3508170852
  0
VERTEX
  8
Layer0$C$L0
 62
     3
 10
-170.4955962757
 20
148.3421109702
  0
VERTEX
  8
Layer0$C$L0
 62
     3
 10
-170.2938714059
 20
148.4116373538
  0
VERTEX
  8
Layer0$C$L0
 62
     3
 10
-170.0990291339
 20
148.5576933172
  0
VERTEX
  8
Layer0$C$L0
 62
     3
 10
-169.9158417573
 20
148.7767014925
  0
VERTEX
  8
Layer0$C$L0
 62
     3
 10
-169.7487961083
 20
149.0632976837
  0
VERTEX
  8
Layer0$C$L0
 62
     3
 10
-169.6019836581
 20
149.4104622527
  0
VERTEX
  8
Layer0$C$L0
 62
     3
 10
-169.4790003033
 20
149.8096920520
  0
VERTEX
  8
Layer0$C$L0
 62
     3
 10
-169.3828582913
 20
150.2512086937
  0
VERTEX
  8
Layer0$C$L0
 62
     3
 10
-169.3159124410
 20
150.7241980529
  0
SEQEND
  8
Layer0$C$L0
 62
     3
  0
ARC
  8
Layer0$C$L0
 62
     3
 10
-171.5736716666
 20
146.8361696463
 40
0.3000000000
 50
180.0000000000
 51
270.0000000000
  0
ARC
  8
Layer0$C$L0
 62
     3
 10
-153.8736716666
 20
147.6361696463
 40
0.3000000000
 50
0.0000000000
 51
90.0000000000
  0
LINE
  8
Layer0$C$L0
 62
     3
 10
-153.5736716666
 20
147.9318128971
 11
-153.5736716666
 21
146.8361696463
  0
ARC
  8
Layer0$C$L0
 62
     3
 10
-153.8736716666
 20
146.8361696463
 40
0.3000000000
 50
270.0000000000
 51
360.0000000000
  0
LINE
  8
Layer0$C$L0
 62
     3
 10
-156.3403538651
 20
148.9361696463
 11
-156.3403538651
 21
154.1361696463
  0
POLYLINE
  8
Layer0$C$L0
 62
     3
 66
     1
  0
VERTEX
  8
Layer0$C$L0
 62
     3
 10
-155.9336172220
 20
147.9361696463
  0
VERTEX
  8
Layer0$C$L0
 62
     3
 10
-156.0129676047
 20
147.9553843659
  0
VERTEX
  8
Layer0$C$L0
 62
     3
 10
-156.0892685966
 20
148.0122901138
  0
VERTEX
  8
Layer0$C$L0
 62
     3
 10
-156.1595879936
 20
148.1047000340
  0
VERTEX
  8
Layer0$C$L0
 62
     3
 10
-156.2212234605
 20
148.2290628651
  0
VERTEX
  8
Layer0$C$L0
 62
     3
 10
-156.2718063809
 20
148.3805994133
  0
VERTEX
  8
Layer0$C$L0
 62
     3
 10
-156.3093928817
 20
148.5534862139
  0
VERTEX
  8
Layer0$C$L0
 62
     3
 10
-156.3325385345
 20
148.7410793243
  0
VERTEX
  8
Layer0$C$L0
 62
     3
 10
-156.3403538651
 20
148.9361696463
  0
SEQEND
  8
Layer0$C$L0
 62
     3
  0
LINE
  8
Layer0$C$L0
 62
     3
 10
-159.7569416669
 20
147.9546281376
 11
-159.7569416669
 21
148.0361696463
  0
LINE
  8
Layer0$C$L0
 62
     3
 10
-156.7470905082
 20
148.0361696463
 11
-156.7470905082
 21
153.2361696463
  0
LINE
  8
Layer0$C$L0
 62
     3
 10
-156.6250695152
 20
153.5361696463
 11
-156.7470905082
 21
153.2361696463
  0
LINE
  8
Layer0$C$L0
 62
     3
 10
-156.7470905082
 20
153.5361696463
 11
-153.2736716666
 21
153.5361696463
  0
LINE
  8
Layer0$C$L0
 62
     3
 10
-151.0540564243
 20
153.2361696463
 11
-147.0736716666
 21
153.2361696463
  0
POLYLINE
  8
Layer0$C$L0
 62
     3
 66
     1
  0
VERTEX
  8
Layer0$C$L0
 62
     3
 10
-150.0736716666
 20
152.9361696463
  0
VERTEX
  8
Layer0$C$L0
 62
     3
 10
-150.0760573563
 20
152.9946967429
  0
VERTEX
  8
Layer0$C$L0
 62
     3
 10
-150.0831227447
 20
153.0509746760
  0
VERTEX
  8
Layer0$C$L0
 62
     3
 10
-150.0945963129
 20
153.1028407162
  0
VERTEX
  8
Layer0$C$L0
 62
     3
 10
-150.1100371380
 20
153.1483016806
  0
VERTEX
  8
Layer0$C$L0
 62
     3
 10
-150.1288518380
 20
153.1856105300
  0
VERTEX
  8
Layer0$C$L0
 62
     3
 10
-150.1503173743
 20
153.2133335060
  0
VERTEX
  8
Layer0$C$L0
 62
     3
 10
-150.1736088384
 20
153.2304052304
  0
VERTEX
  8
Layer0$C$L0
 62
     3
 10
-150.1978311525
 20
153.2361696463
  0
SEQEND
  8
Layer0$C$L0
 62
     3
  0
ARC
  8
Layer0$C$L0
 62
     3
 10
-150.9736716666
 20
152.9361696463
 40
0.3000000000
 50
90.0000000000
 51
180.0000000000
  0
POLYLINE
  8
Layer0$C$L0
 62
     3
 66
     1
  0
VERTEX
  8
Layer0$C$L0
 62
     3
 10
-148.1736716666
 20
152.9361696463
  0
VERTEX
  8
Layer0$C$L0
 62
     3
 10
-148.1760573563
 20
152.9946967429
  0
VERTEX
  8
Layer0$C$L0
 62
     3
 10
-148.1831227447
 20
153.0509746760
  0
VERTEX
  8
Layer0$C$L0
 62
     3
 10
-148.1945963129
 20
153.1028407162
  0
VERTEX
  8
Layer0$C$L0
 62
     3
 10
-148.2100371380
 20
153.1483016806
  0
VERTEX
  8
Layer0$C$L0
 62
     3
 10
-148.2288518380
 20
153.1856105300
  0
VERTEX
  8
Layer0$C$L0
 62
     3
 10
-148.2503173743
 20
153.2133335060
  0
VERTEX
  8
Layer0$C$L0
 62
     3
 10
-148.2736088384
 20
153.2304052304
  0
VERTEX
  8
Layer0$C$L0
 62
     3
 10
-148.2978311525
 20
153.2361696463
  0
SEQEND
  8
Layer0$C$L0
 62
     3
  0
LINE
  8
Layer0$C$L0
 62
     3
 10
-148.1736716666
 20
152.9361696463
 11
-148.1736716666
 21
150.1361696463
  0
LINE
  8
Layer0$C$L0
 62
     3
 10
-150.0736716666
 20
152.9361696463
 11
-150.0736716666
 21
150.1361696463
  0
ARC
  8
Layer0$C$L0
 62
     3
 10
-150.9736716666
 20
150.1361696463
 40
0.3000000000
 50
180.0000000000
 51
270.0000000000
  0
LINE
  8
Layer0$C$L0
 62
     3
 10
-147.0736716666
 20
149.8361696463
 11
-151.0540564243
 21
149.8361696463
  0
POLYLINE
  8
Layer0$C$L0
 62
     3
 66
     1
  0
VERTEX
  8
Layer0$C$L0
 62
     3
 10
-150.1978311525
 20
149.8361696463
  0
VERTEX
  8
Layer0$C$L0
 62
     3
 10
-150.1736088384
 20
149.8419340622
  0
VERTEX
  8
Layer0$C$L0
 62
     3
 10
-150.1503173743
 20
149.8590057865
  0
VERTEX
  8
Layer0$C$L0
 62
     3
 10
-150.1288518380
 20
149.8867287626
  0
VERTEX
  8
Layer0$C$L0
 62
     3
 10
-150.1100371380
 20
149.9240376119
  0
VERTEX
  8
Layer0$C$L0
 62
     3
 10
-150.0945963129
 20
149.9694985764
  0
VERTEX
  8
Layer0$C$L0
 62
     3
 10
-150.0831227447
 20
150.0213646166
  0
VERTEX
  8
Layer0$C$L0
 62
     3
 10
-150.0760573563
 20
150.0776425497
  0
VERTEX
  8
Layer0$C$L0
 62
     3
 10
-150.0736716666
 20
150.1361696463
  0
SEQEND
  8
Layer0$C$L0
 62
     3
  0
POLYLINE
  8
Layer0$C$L0
 62
     3
 66
     1
  0
VERTEX
  8
Layer0$C$L0
 62
     3
 10
-148.2978311525
 20
149.8361696463
  0
VERTEX
  8
Layer0$C$L0
 62
     3
 10
-148.2736088384
 20
149.8419340622
  0
VERTEX
  8
Layer0$C$L0
 62
     3
 10
-148.2503173743
 20
149.8590057865
  0
VERTEX
  8
Layer0$C$L0
 62
     3
 10
-148.2288518380
 20
149.8867287626
  0
VERTEX
  8
Layer0$C$L0
 62
     3
 10
-148.2100371380
 20
149.9240376119
  0
VERTEX
  8
Layer0$C$L0
 62
     3
 10
-148.1945963129
 20
149.9694985764
  0
VERTEX
  8
Layer0$C$L0
 62
     3
 10
-148.1831227447
 20
150.0213646166
  0
VERTEX
  8
Layer0$C$L0
 62
     3
 10
-148.1760573563
 20
150.0776425497
  0
VERTEX
  8
Layer0$C$L0
 62
     3
 10
-148.1736716666
 20
150.1361696463
  0
SEQEND
  8
Layer0$C$L0
 62
     3
  0
LINE
  8
Layer0$C$L0
 62
     3
 10
-152.9253627159
 20
146.8361696463
 11
-152.9253627159
 21
148.3878606956
  0
POLYLINE
  8
Layer0$C$L0
 62
     3
 66
     1
  0
VERTEX
  8
Layer0$C$L0
 62
     3
 10
-151.2736716666
 20
153.1704549786
  0
VERTEX
  8
Layer0$C$L0
 62
     3
 10
-151.2040564243
 20
153.2093623783
  0
VERTEX
  8
Layer0$C$L0
 62
     3
 10
-151.0540564243
 20
153.2361696463
  0
SEQEND
  8
Layer0$C$L0
 62
     3
  0
POLYLINE
  8
Layer0$C$L0
 62
     3
 66
     1
  0
VERTEX
  8
Layer0$C$L0
 62
     3
 10
-151.0540564243
 20
149.8361696463
  0
VERTEX
  8
Layer0$C$L0
 62
     3
 10
-151.2040564243
 20
149.8629769143
  0
VERTEX
  8
Layer0$C$L0
 62
     3
 10
-151.2736716666
 20
149.9018843139
  0
SEQEND
  8
Layer0$C$L0
 62
     3
  0
ARC
  8
Layer0$C$L0
 62
     3
 10
-153.3260352005
 20
146.7645581682
 40
0.4070216747
 50
325.8666229632
 51
370.1333770368
  0
LINE
  8
Layer0$C$L0
 62
     3
 10
-149.5736716666
 20
153.4361696463
 11
-149.5736716666
 21
153.2361696463
  0
LINE
  8
Layer0$C$L0
 62
     3
 10
-149.5736716666
 20
149.8361696463
 11
-149.5736716666
 21
149.6361696463
  0
LINE
  8
Layer0$C$L0
 62
     3
 10
-149.5736716666
 20
147.2361696463
 11
-149.5736716666
 21
146.6361696463
  0
ARC
  8
Layer0$C$L0
 62
     3
 10
-149.8736716666
 20
146.8361696463
 40
0.3000000000
 50
270.0000000000
 51
360.0000000000
  0
LINE
  8
Layer0$C$L0
 62
     3
 10
-149.8736716666
 20
146.5361696463
 11
-150.0736716666
 21
146.5361696463
  0
ARC
  8
Layer0$C$L0
 62
     3
 10
-172.0736533984
 20
149.7812970029
 40
0.1000182689
 50
179.9930703671
 51
269.9895350248
  0
LINE
  8
Layer0$C$L0
 62
     3
 10
-172.1736716666
 20
149.7813090996
 11
-172.1736716666
 21
152.9193315711
  0
ARC
  8
Layer0$C$L0
 62
     3
 10
-172.1036139475
 20
155.0488847609
 40
4.4084347322
 50
269.0894317724
 51
270.3891584246
  0
LINE
  8
Layer0$C$L0
 62
     3
 10
-172.0736716666
 20
149.6812787357
 11
-171.8736716666
 21
149.6812787357
  0
LINE
  8
Layer0$C$L0
 62
     3
 10
-172.0736716666
 20
150.6405517145
 11
-171.8736716666
 21
150.6405517145
  0
ARC
  8
Layer0$C$L0
 62
     3
 10
-172.1236630267
 20
147.4076918514
 40
5.0008640216E-02
 50
179.9932488989
 51
269.9901011505
  0
LINE
  8
Layer0$C$L0
 62
     3
 10
-172.1736716666
 20
147.4076977439
 11
-172.1736716666
 21
148.8996706937
  0
POLYLINE
  8
Layer0$C$L0
 62
     3
 66
     1
  0
VERTEX
  8
Layer0$C$L0
 62
     3
 10
-172.1236716666
 20
148.1583912355
  0
VERTEX
  8
Layer0$C$L0
 62
     3
 10
-172.1402195282
 20
148.1583912728
  0
VERTEX
  8
Layer0$C$L0
 62
     3
 10
-172.1549017293
 20
148.1583913803
  0
VERTEX
  8
Layer0$C$L0
 62
     3
 10
-172.1660645688
 20
148.1583915460
  0
VERTEX
  8
Layer0$C$L0
 62
     3
 10
-172.1736716666
 20
148.1583918965
  0
SEQEND
  8
Layer0$C$L0
 62
     3
  0
LINE
  8
Layer0$C$L0
 62
     3
 10
-172.1236716666
 20
147.3576832120
 11
-171.8736716666
 21
147.3576832120
  0
LINE
  8
Layer0$C$L0
 62
     3
 10
-172.1236716666
 20
148.1583912355
 11
-171.8736716666
 21
148.1583912355
  0
LINE
  8
Layer0$C$L0
 62
     3
 10
-172.0736716666
 20
151.4271414605
 11
-171.8736716666
 21
151.4271414605
  0
ARC
  8
Layer0$C$L0
 62
     3
 10
-172.0945086565
 20
151.2741878313
 40
0.1543664240
 50
82.2423081040
 51
120.8522065160
  0
LINE
  8
Layer0$C$L0
 62
     3
 10
-172.1236716666
 20
148.9496870741
 11
-171.8736716666
 21
148.9496870741
  0
ARC
  8
Layer0$C$L0
 62
     3
 10
-172.1236619160
 20
148.8996773240
 40
5.0009751060E-02
 50
90.0111712099
 51
180.0075962775
  0
LINE
  8
Layer0$C$L0
 62
     3
 10
-172.0736716666
 20
152.2045684228
 11
-171.8736716666
 21
152.2045684228
  0
ARC
  8
Layer0$C$L0
 62
     3
 10
-172.1034901475
 20
150.0379185970
 40
2.1668550043
 50
89.2115175982
 51
91.8560578369
  0
ARC
  8
Layer0$C$L0
 62
     3
 10
-172.0736598012
 20
152.9193394848
 40
0.1000118657
 50
90.0067975365
 51
180.0045338531
  0
LINE
  8
Layer0$C$L0
 62
     3
 10
-172.0736716666
 20
153.0193513497
 11
-171.8736716666
 21
153.0193513497
  0
LINE
  8
Layer0$C$L0
 62
     3
 10
-159.8482962127
 20
148.0361696463
 11
-159.8482962127
 21
148.2130204884
  0
LINE
  8
Layer0$C$L0
 62
     3
 10
-159.8482962127
 20
148.8689916467
 11
-159.8482962127
 21
149.7861696463
  0
LINE
  8
Layer0$C$L0
 62
     3
 10
-159.8482962127
 20
153.2861696463
 11
-159.8482962127
 21
153.5361696463
  0
LINE
  8
Layer0$C$L0
 62
     3
 10
-159.8482962127
 20
153.5361696463
 11
-159.9962865673
 21
153.5361696463
  0
LINE
  8
Layer0$C$L0
 62
     3
 10
-159.3615018324
 20
155.0361696463
 11
-159.3615018324
 21
155.1361696463
  0
LINE
  8
Layer0$C$L0
 62
     3
 10
-159.0559980414
 20
155.1361696463
 11
-159.0559980414
 21
155.0361696463
  0
LINE
  8
Layer0$C$L0
 62
     3
 10
-157.1270294783
 20
155.0361696463
 11
-157.1270294783
 21
155.1361696463
  0
LINE
  8
Layer0$C$L0
 62
     3
 10
-158.3146385733
 20
155.1361696463
 11
-158.4059931190
 21
155.0361696463
  0
LINE
  8
Layer0$C$L0
 62
     3
 10
-158.8370707857
 20
155.0361696463
 11
-158.7276071578
 21
155.1361696463
  0
LINE
  8
Layer0$C$L0
 62
     3
 10
-156.9643348211
 20
155.0361696463
 11
-156.9643348211
 21
155.1361696463
  0
LINE
  8
Layer0$C$L0
 62
     3
 10
-159.9317070642
 20
154.9200386211
 11
-159.9317070642
 21
154.8730745609
  0
LINE
  8
Layer0$C$L0
 62
     3
 10
-159.9317070642
 20
153.8273104022
 11
-159.9317070642
 21
153.5361696463
  0
LINE
  8
Layer0$C$L0
 62
     3
 10
-172.1236716666
 20
148.9525039878
 11
-171.8736716666
 21
148.9525039878
  0
POLYLINE
  8
Layer0$C$L0
 62
     3
 66
     1
  0
VERTEX
  8
Layer0$C$L0
 62
     3
 10
-169.2468224233
 20
166.2361696463
  0
VERTEX
  8
Layer0$C$L0
 62
     3
 10
-169.2438626351
 20
166.2882640996
  0
VERTEX
  8
Layer0$C$L0
 62
     3
 10
-169.2350732023
 20
166.3387756893
  0
VERTEX
  8
Layer0$C$L0
 62
     3
 10
-169.2207211872
 20
166.3861696463
  0
VERTEX
  8
Layer0$C$L0
 62
     3
 10
-169.2012426687
 20
166.4290059292
  0
VERTEX
  8
Layer0$C$L0
 62
     3
 10
-169.1772294917
 20
166.4659829792
  0
VERTEX
  8
Layer0$C$L0
 62
     3
 10
-169.1494112843
 20
166.4959772674
  0
VERTEX
  8
Layer0$C$L0
 62
     3
 10
-169.1186332887
 20
166.5180774325
  0
VERTEX
  8
Layer0$C$L0
 62
     3
 10
-169.0858306788
 20
166.5316119722
  0
VERTEX
  8
Layer0$C$L0
 62
     3
 10
-169.0520001453
 20
166.5361696463
  0
SEQEND
  8
Layer0$C$L0
 62
     3
  0
LINE
  8
Layer0$C$L0
 62
     3
 10
-171.5736716666
 20
166.5361696463
 11
-149.8736716666
 21
166.5361696463
  0
ARC
  8
Layer0$C$L0
 62
     3
 10
-158.2743441512
 20
166.3077811244
 40
0.4070216747
 50
349.8666229632
 51
394.1333770368
  0
ARC
  8
Layer0$C$L0
 62
     3
 10
-170.4097704722
 20
165.6366997179
 40
0.5152198543
 50
202.9055154687
 51
247.0944845313
  0
POLYLINE
  8
Layer0$C$L0
 62
     3
 66
     1
  0
VERTEX
  8
Layer0$C$L0
 62
     3
 10
-169.2468224233
 20
165.4361696463
  0
VERTEX
  8
Layer0$C$L0
 62
     3
 10
-169.2438626351
 20
165.3840751930
  0
VERTEX
  8
Layer0$C$L0
 62
     3
 10
-169.2350732023
 20
165.3335636033
  0
VERTEX
  8
Layer0$C$L0
 62
     3
 10
-169.2207211872
 20
165.2861696463
  0
VERTEX
  8
Layer0$C$L0
 62
     3
 10
-169.2012426687
 20
165.2433333634
  0
VERTEX
  8
Layer0$C$L0
 62
     3
 10
-169.1772294917
 20
165.2063563133
  0
VERTEX
  8
Layer0$C$L0
 62
     3
 10
-169.1494112843
 20
165.1763620251
  0
VERTEX
  8
Layer0$C$L0
 62
     3
 10
-169.1186332887
 20
165.1542618600
  0
VERTEX
  8
Layer0$C$L0
 62
     3
 10
-169.0858306788
 20
165.1407273204
  0
VERTEX
  8
Layer0$C$L0
 62
     3
 10
-169.0520001453
 20
165.1361696463
  0
SEQEND
  8
Layer0$C$L0
 62
     3
  0
LINE
  8
Layer0$C$L0
 62
     3
 10
-153.8736716666
 20
165.1361696463
 11
-170.4767319383
 21
165.1361696463
  0
ARC
  8
Layer0$C$L0
 62
     3
 10
-170.4771093556
 20
165.4911239110
 40
0.3549544654
 50
247.9611881979
 51
270.0609216773
  0
ARC
  8
Layer0$C$L0
 62
     3
 10
-171.5736716666
 20
166.2361696463
 40
0.3000000000
 50
90.0000000000
 51
180.0000000000
  0
ARC
  8
Layer0$C$L0
 62
     3
 10
-153.8736716666
 20
166.2361696463
 40
0.3000000000
 50
0.0000000000
 51
90.0000000000
  0
ARC
  8
Layer0$C$L0
 62
     3
 10
-158.2605021821
 20
165.3616159668
 40
0.3939493608
 50
325.0911649317
 51
370.9088350683
  0
LINE
  8
Layer0$C$L0
 62
     3
 10
-171.8736716666
 20
165.5361696463
 11
-171.0996921736
 21
165.5361696463
  0
LINE
  8
Layer0$C$L0
 62
     3
 10
-171.8736716666
 20
157.3361696463
 11
-171.8736716666
 21
166.2361696463
  0
LINE
  8
Layer0$C$L0
 62
     3
 10
-169.2468224233
 20
165.4361696463
 11
-169.2468224233
 21
166.2361696463
  0
LINE
  8
Layer0$C$L0
 62
     3
 10
-169.2468224233
 20
156.8361696463
 11
-169.2468224233
 21
157.6361696463
  0
LINE
  8
Layer0$C$L0
 62
     3
 10
-171.8736716666
 20
156.8361696463
 11
-171.8736716666
 21
157.3361696463
  0
LINE
  8
Layer0$C$L0
 62
     3
 10
-171.8736716666
 20
157.3361696463
 11
-171.0996921736
 21
157.3361696463
  0
LINE
  8
Layer0$C$L0
 62
     3
 10
-171.0996921736
 20
165.5361696463
 11
-171.0996921736
 21
157.3361696463
  0
LINE
  8
Layer0$C$L0
 62
     3
 10
-157.8736716666
 20
165.4361696463
 11
-157.8736716666
 21
166.2361696463
  0
LINE
  8
Layer0$C$L0
 62
     3
 10
-153.5736716666
 20
157.6361696463
 11
-153.5736716666
 21
166.2361696463
  0
ARC
  8
Layer0$C$L0
 62
     3
 10
-153.8736716666
 20
165.4361696463
 40
0.3000000000
 50
270.0000000000
 51
360.0000000000
  0
POLYLINE
  8
Layer0$C$L0
 62
     3
 66
     1
  0
VERTEX
  8
Layer0$C$L0
 62
     3
 10
-169.2468224233
 20
157.6361696463
  0
VERTEX
  8
Layer0$C$L0
 62
     3
 10
-169.2438626351
 20
157.6882640996
  0
VERTEX
  8
Layer0$C$L0
 62
     3
 10
-169.2350732023
 20
157.7387756893
  0
VERTEX
  8
Layer0$C$L0
 62
     3
 10
-169.2207211872
 20
157.7861696463
  0
VERTEX
  8
Layer0$C$L0
 62
     3
 10
-169.2012426687
 20
157.8290059292
  0
VERTEX
  8
Layer0$C$L0
 62
     3
 10
-169.1772294917
 20
157.8659829792
  0
VERTEX
  8
Layer0$C$L0
 62
     3
 10
-169.1494112843
 20
157.8959772674
  0
VERTEX
  8
Layer0$C$L0
 62
     3
 10
-169.1186332887
 20
157.9180774325
  0
VERTEX
  8
Layer0$C$L0
 62
     3
 10
-169.0858306788
 20
157.9316119722
  0
VERTEX
  8
Layer0$C$L0
 62
     3
 10
-169.0520001453
 20
157.9361696463
  0
SEQEND
  8
Layer0$C$L0
 62
     3
  0
ARC
  8
Layer0$C$L0
 62
     3
 10
-170.4097704722
 20
157.4356395746
 40
0.5152198543
 50
112.9055154687
 51
157.0944845313
  0
ARC
  8
Layer0$C$L0
 62
     3
 10
-170.4771093556
 20
157.5812153815
 40
0.3549544654
 50
89.9390783227
 51
112.0388118021
  0
LINE
  8
Layer0$C$L0
 62
     3
 10
-170.4767319383
 20
157.9361696463
 11
-153.8736716666
 21
157.9361696463
  0
ARC
  8
Layer0$C$L0
 62
     3
 10
-158.2743441512
 20
157.7077811244
 40
0.4070216747
 50
349.8666229632
 51
394.1333770368
  0
LINE
  8
Layer0$C$L0
 62
     3
 10
-157.8736716666
 20
156.8361696463
 11
-157.8736716666
 21
157.6361696463
  0
ARC
  8
Layer0$C$L0
 62
     3
 10
-153.8736716666
 20
157.6361696463
 40
0.3000000000
 50
0.0000000000
 51
90.0000000000
  0
LINE
  8
Layer0$C$L0
 62
     3
 10
-149.8736716666
 20
156.5361696463
 11
-171.5736716666
 21
156.5361696463
  0
POLYLINE
  8
Layer0$C$L0
 62
     3
 66
     1
  0
VERTEX
  8
Layer0$C$L0
 62
     3
 10
-169.0520001453
 20
156.5361696463
  0
VERTEX
  8
Layer0$C$L0
 62
     3
 10
-169.0858306788
 20
156.5407273204
  0
VERTEX
  8
Layer0$C$L0
 62
     3
 10
-169.1186332887
 20
156.5542618600
  0
VERTEX
  8
Layer0$C$L0
 62
     3
 10
-169.1494112843
 20
156.5763620251
  0
VERTEX
  8
Layer0$C$L0
 62
     3
 10
-169.1772294917
 20
156.6063563133
  0
VERTEX
  8
Layer0$C$L0
 62
     3
 10
-169.2012426687
 20
156.6433333634
  0
VERTEX
  8
Layer0$C$L0
 62
     3
 10
-169.2207211872
 20
156.6861696463
  0
VERTEX
  8
Layer0$C$L0
 62
     3
 10
-169.2350732023
 20
156.7335636033
  0
VERTEX
  8
Layer0$C$L0
 62
     3
 10
-169.2438626351
 20
156.7840751930
  0
VERTEX
  8
Layer0$C$L0
 62
     3
 10
-169.2468224233
 20
156.8361696463
  0
SEQEND
  8
Layer0$C$L0
 62
     3
  0
ARC
  8
Layer0$C$L0
 62
     3
 10
-158.2743441512
 20
156.7645581682
 40
0.4070216747
 50
325.8666229632
 51
370.1333770368
  0
LINE
  8
Layer0$C$L0
 62
     3
 10
-153.5736716666
 20
156.8361696463
 11
-153.5736716666
 21
157.6361696463
  0
ARC
  8
Layer0$C$L0
 62
     3
 10
-171.5736716666
 20
156.8361696463
 40
0.3000000000
 50
180.0000000000
 51
270.0000000000
  0
ARC
  8
Layer0$C$L0
 62
     3
 10
-153.8736716666
 20
156.8361696463
 40
0.3000000000
 50
270.0000000000
 51
360.0000000000
  0
LINE
  8
Layer0$C$L0
 62
     3
 10
-159.7736716666
 20
165.1361696463
 11
-159.7736716666
 21
157.9361696463
  0
LINE
  8
Layer0$C$L0
 62
     3
 10
-155.0736716666
 20
157.9361696463
 11
-155.0736716666
 21
165.1361696463
  0
LINE
  8
Layer0$C$L0
 62
     3
 10
-168.3736716666
 20
163.5361696463
 11
-166.3736716666
 21
163.5361696463
  0
LINE
  8
Layer0$C$L0
 62
     3
 10
-168.3736716666
 20
159.5361696463
 11
-168.3736716666
 21
163.5361696463
  0
LINE
  8
Layer0$C$L0
 62
     3
 10
-166.3736716666
 20
159.5361696463
 11
-168.3736716666
 21
159.5361696463
  0
LINE
  8
Layer0$C$L0
 62
     3
 10
-166.3736716666
 20
163.5361696463
 11
-166.3736716666
 21
159.5361696463
  0
LINE
  8
Layer0$C$L0
 62
     3
 10
-163.8736716666
 20
157.9361696463
 11
-163.8736716666
 21
165.1361696463
  0
LINE
  8
Layer0$C$L0
 62
     3
 10
-150.9736716666
 20
163.2361696463
 11
-147.0736716666
 21
163.2361696463
  0
ARC
  8
Layer0$C$L0
 62
     3
 10
-150.9736716666
 20
162.9361696463
 40
0.3000000000
 50
90.0000000000
 51
180.0000000000
  0
LINE
  8
Layer0$C$L0
 62
     3
 10
-147.0736716666
 20
159.8361696463
 11
-150.9736716666
 21
159.8361696463
  0
ARC
  8
Layer0$C$L0
 62
     3
 10
-150.9736716666
 20
160.1361696463
 40
0.3000000000
 50
180.0000000000
 51
270.0000000000
  0
POLYLINE
  8
Layer0$C$L0
 62
     3
 66
     1
  0
VERTEX
  8
Layer0$C$L0
 62
     3
 10
-148.2979357353
 20
163.2361696463
  0
VERTEX
  8
Layer0$C$L0
 62
     3
 10
-148.2763575062
 20
163.2316119722
  0
VERTEX
  8
Layer0$C$L0
 62
     3
 10
-148.2554349207
 20
163.2180774325
  0
VERTEX
  8
Layer0$C$L0
 62
     3
 10
-148.2358037009
 20
163.1959772674
  0
VERTEX
  8
Layer0$C$L0
 62
     3
 10
-148.2180603316
 20
163.1659829792
  0
VERTEX
  8
Layer0$C$L0
 62
     3
 10
-148.2027439360
 20
163.1290059292
  0
VERTEX
  8
Layer0$C$L0
 62
     3
 10
-148.1903198950
 20
163.0861696463
  0
VERTEX
  8
Layer0$C$L0
 62
     3
 10
-148.1811657069
 20
163.0387756893
  0
VERTEX
  8
Layer0$C$L0
 62
     3
 10
-148.1755595170
 20
162.9882640996
  0
VERTEX
  8
Layer0$C$L0
 62
     3
 10
-148.1736716666
 20
162.9361696463
  0
SEQEND
  8
Layer0$C$L0
 62
     3
  0
LINE
  8
Layer0$C$L0
 62
     3
 10
-148.1736716666
 20
162.9361696463
 11
-148.1736716666
 21
160.1361696463
  0
POLYLINE
  8
Layer0$C$L0
 62
     3
 66
     1
  0
VERTEX
  8
Layer0$C$L0
 62
     3
 10
-148.2979357353
 20
159.8361696463
  0
VERTEX
  8
Layer0$C$L0
 62
     3
 10
-148.2736930181
 20
159.8419340622
  0
VERTEX
  8
Layer0$C$L0
 62
     3
 10
-148.2503819350
 20
159.8590057865
  0
VERTEX
  8
Layer0$C$L0
 62
     3
 10
-148.2288983177
 20
159.8867287626
  0
VERTEX
  8
Layer0$C$L0
 62
     3
 10
-148.2100677696
 20
159.9240376119
  0
VERTEX
  8
Layer0$C$L0
 62
     3
 10
-148.1946139383
 20
159.9694985764
  0
VERTEX
  8
Layer0$C$L0
 62
     3
 10
-148.1831307056
 20
160.0213646166
  0
VERTEX
  8
Layer0$C$L0
 62
     3
 10
-148.1760593658
 20
160.0776425497
  0
VERTEX
  8
Layer0$C$L0
 62
     3
 10
-148.1736716666
 20
160.1361696463
  0
SEQEND
  8
Layer0$C$L0
 62
     3
  0
ARC
  8
Layer0$C$L0
 62
     3
 10
-149.8736716666
 20
166.2361696463
 40
0.3000000000
 50
0.0000000000
 51
90.0000000000
  0
LINE
  8
Layer0$C$L0
 62
     3
 10
-149.5736716666
 20
167.2361696463
 11
-149.5736716666
 21
165.8361696463
  0
LINE
  8
Layer0$C$L0
 62
     3
 10
-149.5736716666
 20
163.4361696463
 11
-149.5736716666
 21
163.2361696463
  0
LINE
  8
Layer0$C$L0
 62
     3
 10
-149.5736716666
 20
159.8361696463
 11
-149.5736716666
 21
159.6361696463
  0
LINE
  8
Layer0$C$L0
 62
     3
 10
-149.5736716666
 20
157.2361696463
 11
-149.5736716666
 21
156.2361696463
  0
ARC
  8
Layer0$C$L0
 62
     3
 10
-149.8736716666
 20
156.8361696463
 40
0.3000000000
 50
270.0000000000
 51
360.0000000000
  0
LINE
  8
Layer0$C$L0
 62
     3
 10
-159.7736716666
 20
163.9361696463
 11
-159.8736716666
 21
163.9361696463
  0
LINE
  8
Layer0$C$L0
 62
     3
 10
-159.8736716666
 20
158.0361696463
 11
-159.8736716666
 21
165.0361696463
  0
LINE
  8
Layer0$C$L0
 62
     3
 10
-159.7736716666
 20
164.5361696463
 11
-159.8736716666
 21
164.5361696463
  0
LINE
  8
Layer0$C$L0
 62
     3
 10
-160.3736716666
 20
165.0361696463
 11
-159.7736716666
 21
165.0361696463
  0
LINE
  8
Layer0$C$L0
 62
     3
 10
-159.7736716666
 20
159.1361696463
 11
-159.8736716666
 21
159.1361696463
  0
LINE
  8
Layer0$C$L0
 62
     3
 10
-159.8736716666
 20
158.5361696463
 11
-159.7736716666
 21
158.5361696463
  0
LINE
  8
Layer0$C$L0
 62
     3
 10
-159.7736716666
 20
158.0361696463
 11
-159.8736716666
 21
158.0361696463
  0
POLYLINE
  8
Layer0$C$L0
 62
     3
 66
     1
  0
VERTEX
  8
Layer0$C$L0
 62
     3
 10
-159.8736716666
 20
159.5361696463
  0
VERTEX
  8
Layer0$C$L0
 62
     3
 10
-159.8733566612
 20
159.6682848701
  0
VERTEX
  8
Layer0$C$L0
 62
     3
 10
-159.8688997337
 20
159.7855420045
  0
VERTEX
  8
Layer0$C$L0
 62
     3
 10
-159.8519850827
 20
159.8734807034
  0
VERTEX
  8
Layer0$C$L0
 62
     3
 10
-159.8165634384
 20
159.9226373166
  0
VERTEX
  8
Layer0$C$L0
 62
     3
 10
-159.7664919896
 20
159.9361696463
  0
SEQEND
  8
Layer0$C$L0
 62
     3
  0
POLYLINE
  8
Layer0$C$L0
 62
     3
 66
     1
  0
VERTEX
  8
Layer0$C$L0
 62
     3
 10
-159.8736716666
 20
163.5361696463
  0
VERTEX
  8
Layer0$C$L0
 62
     3
 10
-159.8733566612
 20
163.4040544224
  0
VERTEX
  8
Layer0$C$L0
 62
     3
 10
-159.8688997337
 20
163.2867972881
  0
VERTEX
  8
Layer0$C$L0
 62
     3
 10
-159.8519850827
 20
163.1988585892
  0
VERTEX
  8
Layer0$C$L0
 62
     3
 10
-159.8165634384
 20
163.1497019760
  0
VERTEX
  8
Layer0$C$L0
 62
     3
 10
-159.7664919896
 20
163.1361696463
  0
SEQEND
  8
Layer0$C$L0
 62
     3
  0
LINE
  8
Layer0$C$L0
 62
     3
 10
-167.5736716666
 20
163.3361696463
 11
-167.5736716666
 21
159.7361696463
  0
LINE
  8
Layer0$C$L0
 62
     3
 10
-166.5736716666
 20
159.7361696463
 11
-168.3736716666
 21
159.7361696463
  0
LINE
  8
Layer0$C$L0
 62
     3
 10
-168.3736716666
 20
163.3361696463
 11
-166.5736716666
 21
163.3361696463
  0
LINE
  8
Layer0$C$L0
 62
     3
 10
-166.5736716666
 20
163.3361696463
 11
-166.5736716666
 21
159.7361696463
  0
LINE
  8
Layer0$C$L0
 62
     3
 10
-171.1613057701
 20
157.3361696463
 11
-171.1613057701
 21
165.5361696463
  0
LINE
  8
Layer0$C$L0
 62
     3
 10
-163.8736716666
 20
165.0361696463
 11
-160.3736716666
 21
165.0361696463
  0
LINE
  8
Layer0$C$L0
 62
     3
 10
-172.0736716666
 20
160.4940847042
 11
-171.8736716666
 21
160.4940847042
  0
LINE
  8
Layer0$C$L0
 62
     3
 10
-172.0736716666
 20
162.9989109590
 11
-172.0736716666
 21
160.4796059397
  0
LINE
  8
Layer0$C$L0
 62
     3
 10
-172.0736716666
 20
162.9989109590
 11
-171.8736716666
 21
162.9989109590
  0
LINE
  8
Layer0$C$L0
 62
     3
 10
-172.0736716666
 20
160.4796059397
 11
-171.8736716666
 21
160.4796059397
  0
LINE
  8
Layer0$C$L0
 62
     3
 10
-162.4236716666
 20
164.6361696463
 11
-162.4236716666
 21
158.4361696463
  0
LINE
  8
Layer0$C$L0
 62
     3
 10
-161.3736716666
 20
163.0361696463
 11
-161.3736716666
 21
158.0361696463
  0
LINE
  8
Layer0$C$L0
 62
     3
 10
-163.4736716666
 20
158.6280327430
 11
-163.4736716666
 21
158.6713380197
  0
LINE
  8
Layer0$C$L0
 62
     3
 10
-163.4736716666
 20
158.6713380197
 11
-163.4773698782
 21
158.6716664628
  0
LINE
  8
Layer0$C$L0
 62
     3
 10
-163.4773698782
 20
164.4006728298
 11
-163.4736716666
 21
164.4010012728
  0
LINE
  8
Layer0$C$L0
 62
     3
 10
-163.4736716666
 20
164.4010012728
 11
-163.4736716666
 21
164.4443065496
  0
ARC
  8
Layer0$C$L0
 62
     3
 10
-163.3922865853
 20
159.7060712272
 40
1.0378980602
 50
242.3669162238
 51
265.2978135519
  0
ARC
  8
Layer0$C$L0
 62
     3
 10
-163.3937014983
 20
163.3717771293
 40
1.0322919937
 50
94.6489843289
 51
117.7073626955
  0
LINE
  8
Layer0$C$L0
 62
     3
 10
-160.1236716666
 20
160.8703384068
 11
-160.1236716666
 21
160.1111696463
  0
LINE
  8
Layer0$C$L0
 62
     3
 10
-160.1236716666
 20
162.9611696463
 11
-160.1236716666
 21
162.2020008858
  0
LINE
  8
Layer0$C$L0
 62
     3
 10
-160.8940513020
 20
164.6771482487
 11
-161.3736716666
 21
163.0361696463
  0
LINE
  8
Layer0$C$L0
 62
     3
 10
-161.3736716666
 20
163.0361696463
 11
-161.3736716666
 21
165.0361696463
  0
LINE
  8
Layer0$C$L0
 62
     3
 10
-161.3736716666
 20
165.0361696463
 11
-160.8940513020
 21
164.8538386904
  0
POLYLINE
  8
Layer0$C$L0
 62
     3
 66
     1
  0
VERTEX
  8
Layer0$C$L0
 62
     3
 10
-160.8940513020
 20
164.8538386904
  0
VERTEX
  8
Layer0$C$L0
 62
     3
 10
-160.8842656021
 20
164.8459247726
  0
VERTEX
  8
Layer0$C$L0
 62
     3
 10
-160.8775331509
 20
164.8309393160
  0
VERTEX
  8
Layer0$C$L0
 62
     3
 10
-160.8741033884
 20
164.8094375376
  0
VERTEX
  8
Layer0$C$L0
 62
     3
 10
-160.8741033884
 20
164.7822160860
  0
VERTEX
  8
Layer0$C$L0
 62
     3
 10
-160.8775331509
 20
164.7502835263
  0
VERTEX
  8
Layer0$C$L0
 62
     3
 10
-160.8842656021
 20
164.7148229717
  0
VERTEX
  8
Layer0$C$L0
 62
     3
 10
-160.8940513020
 20
164.6771482487
  0
SEQEND
  8
Layer0$C$L0
 62
     3
  0
LINE
  8
Layer0$C$L0
 62
     3
 10
-160.3736716666
 20
163.0361696463
 11
-159.8940513020
 21
164.6771482487
  0
LINE
  8
Layer0$C$L0
 62
     3
 10
-161.3736716666
 20
163.0361696463
 11
-160.3736716666
 21
163.0361696463
  0
LINE
  8
Layer0$C$L0
 62
     3
 10
-161.3736716666
 20
160.0361696463
 11
-160.3736716666
 21
160.0361696463
  0
ARC
  8
Layer0$C$L0
 62
     3
 10
-161.3736716666
 20
161.1361696463
 40
0.3000000000
 50
270.0000000000
 51
360.0000000000
  0
LINE
  8
Layer0$C$L0
 62
     3
 10
-161.0736716666
 20
161.1361696463
 11
-161.0736716666
 21
161.9361696463
  0
ARC
  8
Layer0$C$L0
 62
     3
 10
-161.3736716666
 20
161.9361696463
 40
0.3000000000
 50
0.0000000000
 51
90.0000000000
  0
LINE
  8
Layer0$C$L0
 62
     3
 10
-160.3736716666
 20
163.0361696463
 11
-160.3736716666
 21
162.3361696463
  0
ARC
  8
Layer0$C$L0
 62
     3
 10
-160.3736716666
 20
162.0361696463
 40
0.3000000000
 50
0.0000000000
 51
90.0000000000
  0
LINE
  8
Layer0$C$L0
 62
     3
 10
-160.0736716666
 20
161.0361696463
 11
-160.0736716666
 21
162.0361696463
  0
ARC
  8
Layer0$C$L0
 62
     3
 10
-160.3736716666
 20
161.0361696463
 40
0.3000000000
 50
270.0000000000
 51
360.0000000000
  0
LINE
  8
Layer0$C$L0
 62
     3
 10
-160.3736716666
 20
160.7361696463
 11
-160.3736716666
 21
160.0361696463
  0
LINE
  8
Layer0$C$L0
 62
     3
 10
-160.8940513020
 20
158.3951910438
 11
-161.3736716666
 21
160.0361696463
  0
LINE
  8
Layer0$C$L0
 62
     3
 10
-160.3736716666
 20
160.0361696463
 11
-159.8940513020
 21
158.3951910438
  0
POLYLINE
  8
Layer0$C$L0
 62
     3
 66
     1
  0
VERTEX
  8
Layer0$C$L0
 62
     3
 10
-160.8940513020
 20
158.2185006021
  0
VERTEX
  8
Layer0$C$L0
 62
     3
 10
-160.8842656021
 20
158.2264145200
  0
VERTEX
  8
Layer0$C$L0
 62
     3
 10
-160.8775331509
 20
158.2413999765
  0
VERTEX
  8
Layer0$C$L0
 62
     3
 10
-160.8741033884
 20
158.2629017550
  0
VERTEX
  8
Layer0$C$L0
 62
     3
 10
-160.8741033884
 20
158.2901232065
  0
VERTEX
  8
Layer0$C$L0
 62
     3
 10
-160.8775331509
 20
158.3220557662
  0
VERTEX
  8
Layer0$C$L0
 62
     3
 10
-160.8842656021
 20
158.3575163209
  0
VERTEX
  8
Layer0$C$L0
 62
     3
 10
-160.8940513020
 20
158.3951910438
  0
SEQEND
  8
Layer0$C$L0
 62
     3
  0
LINE
  8
Layer0$C$L0
 62
     3
 10
-161.3736716666
 20
158.0361696463
 11
-160.8940513020
 21
158.2185006021
  0
POLYLINE
  8
Layer0$C$L0
 62
     3
 66
     1
  0
VERTEX
  8
Layer0$C$L0
 62
     3
 10
-159.8940513020
 20
164.6771482487
  0
VERTEX
  8
Layer0$C$L0
 62
     3
 10
-159.8842656021
 20
164.7148229717
  0
VERTEX
  8
Layer0$C$L0
 62
     3
 10
-159.8775331509
 20
164.7502835263
  0
VERTEX
  8
Layer0$C$L0
 62
     3
 10
-159.8741033884
 20
164.7822160860
  0
VERTEX
  8
Layer0$C$L0
 62
     3
 10
-159.8741033884
 20
164.8094375376
  0
VERTEX
  8
Layer0$C$L0
 62
     3
 10
-159.8775331509
 20
164.8309393160
  0
VERTEX
  8
Layer0$C$L0
 62
     3
 10
-159.8842656021
 20
164.8459247726
  0
VERTEX
  8
Layer0$C$L0
 62
     3
 10
-159.8940513020
 20
164.8538386904
  0
SEQEND
  8
Layer0$C$L0
 62
     3
  0
POLYLINE
  8
Layer0$C$L0
 62
     3
 66
     1
  0
VERTEX
  8
Layer0$C$L0
 62
     3
 10
-159.8940513020
 20
158.3951910438
  0
VERTEX
  8
Layer0$C$L0
 62
     3
 10
-159.8842656021
 20
158.3575163209
  0
VERTEX
  8
Layer0$C$L0
 62
     3
 10
-159.8775331509
 20
158.3220557662
  0
VERTEX
  8
Layer0$C$L0
 62
     3
 10
-159.8741033884
 20
158.2901232065
  0
VERTEX
  8
Layer0$C$L0
 62
     3
 10
-159.8741033884
 20
158.2629017550
  0
VERTEX
  8
Layer0$C$L0
 62
     3
 10
-159.8775331509
 20
158.2413999765
  0
VERTEX
  8
Layer0$C$L0
 62
     3
 10
-159.8842656021
 20
158.2264145200
  0
VERTEX
  8
Layer0$C$L0
 62
     3
 10
-159.8940513020
 20
158.2185006021
  0
SEQEND
  8
Layer0$C$L0
 62
     3
  0
LINE
  8
Layer0$C$L0
 62
     3
 10
-159.8940513020
 20
164.8538386904
 11
-160.3736716666
 21
165.0361696463
  0
LINE
  8
Layer0$C$L0
 62
     3
 10
-161.3736716666
 20
158.0361696463
 11
-160.0736716666
 21
158.0361696463
  0
LINE
  8
Layer0$C$L0
 62
     3
 10
-159.8940513020
 20
158.2185006021
 11
-160.3736716666
 21
158.0361696463
  0
LINE
  8
Layer0$C$L0
 62
     3
 10
-160.0736716666
 20
165.0361696463
 11
-160.0736716666
 21
164.9221225983
  0
LINE
  8
Layer0$C$L0
 62
     3
 10
-160.0736716666
 20
158.1502166943
 11
-160.0736716666
 21
158.0361696463
  0
ARC
  8
Layer0$C$L0
 62
     3
 10
-160.1225680855
 20
151.0244217762
 40
0.2896757726
 50
277.2741384753
 51
362.3242814460
  0
ARC
  8
Layer0$C$L0
 62
     3
 10
-160.1225680855
 20
152.0479175164
 40
0.2896757726
 50
357.6757185540
 51
442.7258615247
  0
LINE
  8
Layer0$C$L0
 62
     3
 10
-159.8331306298
 20
151.0361696463
 11
-159.8331306298
 21
152.0361696463
  0
LINE
  8
Layer0$C$L0
 62
     3
 10
-159.7431999426
 20
154.6771482487
 11
-160.0858902414
 21
153.1322135898
  0
LINE
  8
Layer0$C$L0
 62
     3
 10
-160.0858902414
 20
149.9401257027
 11
-159.7431999426
 21
148.3951910438
  0
LINE
  8
Layer0$C$L0
 62
     3
 10
-159.9525725633
 20
154.8765156088
 11
-159.8150664197
 21
154.8538386904
  0
LINE
  8
Layer0$C$L0
 62
     3
 10
-159.8150664197
 20
148.2185006021
 11
-159.9525725633
 21
148.1958236838
  0
POLYLINE
  8
Layer0$C$L0
 62
     3
 66
     1
  0
VERTEX
  8
Layer0$C$L0
 62
     3
 10
-159.8150664197
 20
154.8538386904
  0
VERTEX
  8
Layer0$C$L0
 62
     3
 10
-159.7908030477
 20
154.8459247726
  0
VERTEX
  8
Layer0$C$L0
 62
     3
 10
-159.7702295405
 20
154.8309393160
  0
VERTEX
  8
Layer0$C$L0
 62
     3
 10
-159.7541081544
 20
154.8094375376
  0
VERTEX
  8
Layer0$C$L0
 62
     3
 10
-159.7430361926
 20
154.7822160860
  0
VERTEX
  8
Layer0$C$L0
 62
     3
 10
-159.7374238754
 20
154.7502835263
  0
VERTEX
  8
Layer0$C$L0
 62
     3
 10
-159.7374791413
 20
154.7148229717
  0
VERTEX
  8
Layer0$C$L0
 62
     3
 10
-159.7431999426
 20
154.6771482487
  0
SEQEND
  8
Layer0$C$L0
 62
     3
  0
POLYLINE
  8
Layer0$C$L0
 62
     3
 66
     1
  0
VERTEX
  8
Layer0$C$L0
 62
     3
 10
-159.8150664197
 20
148.2185006021
  0
VERTEX
  8
Layer0$C$L0
 62
     3
 10
-159.7908030477
 20
148.2264145200
  0
VERTEX
  8
Layer0$C$L0
 62
     3
 10
-159.7702295405
 20
148.2413999765
  0
VERTEX
  8
Layer0$C$L0
 62
     3
 10
-159.7541081544
 20
148.2629017550
  0
VERTEX
  8
Layer0$C$L0
 62
     3
 10
-159.7430361926
 20
148.2901232065
  0
VERTEX
  8
Layer0$C$L0
 62
     3
 10
-159.7374238754
 20
148.3220557662
  0
VERTEX
  8
Layer0$C$L0
 62
     3
 10
-159.7374791413
 20
148.3575163209
  0
VERTEX
  8
Layer0$C$L0
 62
     3
 10
-159.7431999426
 20
148.3951910438
  0
SEQEND
  8
Layer0$C$L0
 62
     3
  0
ARC
  8
Layer0$C$L0
 62
     3
 10
-160.1225680855
 20
171.0244217762
 40
0.2896757726
 50
277.2741384753
 51
362.3242814460
  0
ARC
  8
Layer0$C$L0
 62
     3
 10
-160.1225680855
 20
172.0479175164
 40
0.2896757726
 50
357.6757185541
 51
442.7258615247
  0
LINE
  8
Layer0$C$L0
 62
     3
 10
-159.8331306298
 20
171.0361696463
 11
-159.8331306298
 21
172.0361696463
  0
LINE
  8
Layer0$C$L0
 62
     3
 10
-159.7431999426
 20
174.6771482487
 11
-160.0858902414
 21
173.1322135898
  0
LINE
  8
Layer0$C$L0
 62
     3
 10
-160.0858902414
 20
169.9401257027
 11
-159.7431999426
 21
168.3951910438
  0
LINE
  8
Layer0$C$L0
 62
     3
 10
-159.9525725633
 20
174.8765156088
 11
-159.8150664197
 21
174.8538386904
  0
LINE
  8
Layer0$C$L0
 62
     3
 10
-159.8150664197
 20
168.2185006021
 11
-159.9525725633
 21
168.1958236838
  0
POLYLINE
  8
Layer0$C$L0
 62
     3
 66
     1
  0
VERTEX
  8
Layer0$C$L0
 62
     3
 10
-159.8150664197
 20
174.8538386904
  0
VERTEX
  8
Layer0$C$L0
 62
     3
 10
-159.7908030477
 20
174.8459247726
  0
VERTEX
  8
Layer0$C$L0
 62
     3
 10
-159.7702295405
 20
174.8309393160
  0
VERTEX
  8
Layer0$C$L0
 62
     3
 10
-159.7541081544
 20
174.8094375376
  0
VERTEX
  8
Layer0$C$L0
 62
     3
 10
-159.7430361926
 20
174.7822160860
  0
VERTEX
  8
Layer0$C$L0
 62
     3
 10
-159.7374238754
 20
174.7502835263
  0
VERTEX
  8
Layer0$C$L0
 62
     3
 10
-159.7374791413
 20
174.7148229717
  0
VERTEX
  8
Layer0$C$L0
 62
     3
 10
-159.7431999426
 20
174.6771482487
  0
SEQEND
  8
Layer0$C$L0
 62
     3
  0
POLYLINE
  8
Layer0$C$L0
 62
     3
 66
     1
  0
VERTEX
  8
Layer0$C$L0
 62
     3
 10
-159.8150664197
 20
168.2185006021
  0
VERTEX
  8
Layer0$C$L0
 62
     3
 10
-159.7908030477
 20
168.2264145200
  0
VERTEX
  8
Layer0$C$L0
 62
     3
 10
-159.7702295405
 20
168.2413999765
  0
VERTEX
  8
Layer0$C$L0
 62
     3
 10
-159.7541081544
 20
168.2629017550
  0
VERTEX
  8
Layer0$C$L0
 62
     3
 10
-159.7430361926
 20
168.2901232065
  0
VERTEX
  8
Layer0$C$L0
 62
     3
 10
-159.7374238754
 20
168.3220557662
  0
VERTEX
  8
Layer0$C$L0
 62
     3
 10
-159.7374791413
 20
168.3575163209
  0
VERTEX
  8
Layer0$C$L0
 62
     3
 10
-159.7431999426
 20
168.3951910438
  0
SEQEND
  8
Layer0$C$L0
 62
     3
  0
POLYLINE
  8
Layer0$C$L0
 62
     3
 66
     1
  0
VERTEX
  8
Layer0$C$L0
 62
     3
 10
-169.2560730241
 20
151.5361696463
  0
VERTEX
  8
Layer0$C$L0
 62
     3
 10
-169.2928717504
 20
152.1361696463
  0
VERTEX
  8
Layer0$C$L0
 62
     3
 10
-169.3159124410
 20
152.3481412397
  0
SEQEND
  8
Layer0$C$L0
 62
     3
  0
LINE
  8
Layer0$C$L0
 62
     3
 10
-166.5736716666
 20
151.5361696463
 11
-166.3736716666
 21
151.7361696463
  0
LINE
  8
Layer0$C$L0
 62
     3
 10
-157.9027849657
 20
155.4361696463
 11
-157.9027849657
 21
156.2361696463
  0
ARC
  8
Layer0$C$L0
 62
     3
 10
-158.3172994193
 20
156.3048389230
 40
0.4201638988
 50
350.5936965390
 51
393.4063034610
  0
ARC
  8
Layer0$C$L0
 62
     3
 10
-158.2896154812
 20
155.3616159668
 40
0.3939493608
 50
325.0911649317
 51
370.9088350683
  0
LINE
  8
Layer0$C$L0
 62
     3
 10
-153.9923243380
 20
155.1361696463
 11
-162.1461606047
 21
155.1361696463
  0
POLYLINE
  8
Layer0$C$L0
 62
     3
 66
     1
  0
VERTEX
  8
Layer0$C$L0
 62
     3
 10
-159.6791535983
 20
155.1361696463
  0
VERTEX
  8
Layer0$C$L0
 62
     3
 10
-159.7585039810
 20
155.1169549267
  0
VERTEX
  8
Layer0$C$L0
 62
     3
 10
-159.8348049730
 20
155.0600491788
  0
VERTEX
  8
Layer0$C$L0
 62
     3
 10
-159.9051243699
 20
154.9676392586
  0
VERTEX
  8
Layer0$C$L0
 62
     3
 10
-159.9667598368
 20
154.8432764275
  0
VERTEX
  8
Layer0$C$L0
 62
     3
 10
-160.0173427573
 20
154.6917398793
  0
VERTEX
  8
Layer0$C$L0
 62
     3
 10
-160.0549292580
 20
154.5188530786
  0
VERTEX
  8
Layer0$C$L0
 62
     3
 10
-160.0780749109
 20
154.3312599683
  0
VERTEX
  8
Layer0$C$L0
 62
     3
 10
-160.0858902414
 20
154.1361696463
  0
SEQEND
  8
Layer0$C$L0
 62
     3
  0
ARC
  8
Layer0$C$L0
 62
     3
 10
-165.5316126311
 20
151.8393548174
 40
4.9837296714
 50
150.9818083305
 51
183.4877420328
  0
POLYLINE
  8
Layer0$C$L0
 62
     3
 66
     1
  0
VERTEX
  8
Layer0$C$L0
 62
     3
 10
-169.3159124410
 20
152.3481412397
  0
VERTEX
  8
Layer0$C$L0
 62
     3
 10
-169.3828582913
 20
152.8211305988
  0
VERTEX
  8
Layer0$C$L0
 62
     3
 10
-169.4790003033
 20
153.2626472406
  0
VERTEX
  8
Layer0$C$L0
 62
     3
 10
-169.6019836581
 20
153.6618770399
  0
VERTEX
  8
Layer0$C$L0
 62
     3
 10
-169.7487961083
 20
154.0090416088
  0
VERTEX
  8
Layer0$C$L0
 62
     3
 10
-169.9158417573
 20
154.2956378000
  0
VERTEX
  8
Layer0$C$L0
 62
     3
 10
-170.0990291339
 20
154.5146459753
  0
VERTEX
  8
Layer0$C$L0
 62
     3
 10
-170.2938714059
 20
154.6607019387
  0
VERTEX
  8
Layer0$C$L0
 62
     3
 10
-170.4955962757
 20
154.7302283224
  0
VERTEX
  8
Layer0$C$L0
 62
     3
 10
-170.6992628696
 20
154.7215222073
  0
VERTEX
  8
Layer0$C$L0
 62
     3
 10
-170.8998827552
 20
154.6347968337
  0
VERTEX
  8
Layer0$C$L0
 62
     3
 10
-171.0925421230
 20
154.4721763774
  0
VERTEX
  8
Layer0$C$L0
 62
     3
 10
-171.2725221419
 20
154.2376439226
  0
VERTEX
  8
Layer0$C$L0
 62
     3
 10
-171.4354145378
 20
153.9369439037
  0
VERTEX
  8
Layer0$C$L0
 62
     3
 10
-171.5772295657
 20
153.5774414055
  0
VERTEX
  8
Layer0$C$L0
 62
     3
 10
-171.6944937315
 20
153.1679417700
  0
VERTEX
  8
Layer0$C$L0
 62
     3
 10
-171.7843348686
 20
152.7184749256
  0
VERTEX
  8
Layer0$C$L0
 62
     3
 10
-171.8445524863
 20
152.2400497228
  0
VERTEX
  8
Layer0$C$L0
 62
     3
 10
-171.8736716666
 20
151.7443842927
  0
SEQEND
  8
Layer0$C$L0
 62
     3
  0
ARC
  8
Layer0$C$L0
 62
     3
 10
-171.5736716666
 20
156.2361696463
 40
0.3000000000
 50
90.0000000000
 51
180.0000000000
  0
ARC
  8
Layer0$C$L0
 62
     3
 10
-153.8736716666
 20
156.2361696463
 40
0.3000000000
 50
0.0000000000
 51
90.0000000000
  0
LINE
  8
Layer0$C$L0
 62
     3
 10
-153.5736716666
 20
156.2361696463
 11
-153.5736716666
 21
155.1405263954
  0
ARC
  8
Layer0$C$L0
 62
     3
 10
-153.8736716666
 20
155.4361696463
 40
0.3000000000
 50
270.0000000000
 51
360.0000000000
  0
LINE
  8
Layer0$C$L0
 62
     3
 10
-153.8736716666
 20
155.1361696463
 11
-153.9923243380
 21
155.1361696463
  0
POLYLINE
  8
Layer0$C$L0
 62
     3
 66
     1
  0
VERTEX
  8
Layer0$C$L0
 62
     3
 10
-156.3403538651
 20
154.1361696463
  0
VERTEX
  8
Layer0$C$L0
 62
     3
 10
-156.3325385345
 20
154.3312599683
  0
VERTEX
  8
Layer0$C$L0
 62
     3
 10
-156.3093928817
 20
154.5188530786
  0
VERTEX
  8
Layer0$C$L0
 62
     3
 10
-156.2718063809
 20
154.6917398793
  0
VERTEX
  8
Layer0$C$L0
 62
     3
 10
-156.2212234605
 20
154.8432764275
  0
VERTEX
  8
Layer0$C$L0
 62
     3
 10
-156.1595879936
 20
154.9676392586
  0
VERTEX
  8
Layer0$C$L0
 62
     3
 10
-156.0892685966
 20
155.0600491788
  0
VERTEX
  8
Layer0$C$L0
 62
     3
 10
-156.0129676047
 20
155.1169549267
  0
VERTEX
  8
Layer0$C$L0
 62
     3
 10
-155.9336172220
 20
155.1361696463
  0
SEQEND
  8
Layer0$C$L0
 62
     3
  0
LINE
  8
Layer0$C$L0
 62
     3
 10
-156.7470905082
 20
155.1361696463
 11
-156.7470905082
 21
153.5361696463
  0
LINE
  8
Layer0$C$L0
 62
     3
 10
-152.9253627159
 20
156.2361696463
 11
-152.9253627159
 21
154.6844785969
  0
ARC
  8
Layer0$C$L0
 62
     3
 10
-153.3260352005
 20
156.3077811244
 40
0.4070216747
 50
349.8666229632
 51
394.1333770368
  0
ARC
  8
Layer0$C$L0
 62
     3
 10
-149.8736716666
 20
156.2361696463
 40
0.3000000000
 50
0.0000000000
 51
90.0000000000
  0
LINE
  8
Layer0$C$L0
 62
     3
 10
-149.5736716666
 20
156.2361696463
 11
-149.5736716666
 21
155.8361696463
  0
LINE
  8
Layer0$C$L0
 62
     3
 10
-156.7990609810
 20
155.1361696463
 11
-156.7990609810
 21
155.0361696463
  0
LINE
  8
Layer0$C$L0
 62
     3
 10
-171.5736716666
 20
176.5361696463
 11
-149.8736716666
 21
176.5361696463
  0
ARC
  8
Layer0$C$L0
 62
     3
 10
-158.3172994193
 20
176.3048389230
 40
0.4201638988
 50
350.5936965390
 51
393.4063034610
  0
POLYLINE
  8
Layer0$C$L0
 62
     3
 66
     1
  0
VERTEX
  8
Layer0$C$L0
 62
     3
 10
-169.2560730241
 20
171.5361696463
  0
VERTEX
  8
Layer0$C$L0
 62
     3
 10
-169.2928717504
 20
172.1361696463
  0
VERTEX
  8
Layer0$C$L0
 62
     3
 10
-169.3159124410
 20
172.3481412397
  0
SEQEND
  8
Layer0$C$L0
 62
     3
  0
LINE
  8
Layer0$C$L0
 62
     3
 10
-166.3736716666
 20
171.5361696463
 11
-171.8736716666
 21
171.5361696463
  0
LINE
  8
Layer0$C$L0
 62
     3
 10
-166.3736716666
 20
171.5361696463
 11
-166.3736716666
 21
173.5361696463
  0
LINE
  8
Layer0$C$L0
 62
     3
 10
-166.5736716666
 20
171.5361696463
 11
-166.3736716666
 21
171.7361696463
  0
LINE
  8
Layer0$C$L0
 62
     3
 10
-157.9027849657
 20
175.4361696463
 11
-157.9027849657
 21
176.2361696463
  0
LINE
  8
Layer0$C$L0
 62
     3
 10
-160.0858902414
 20
173.5361696463
 11
-166.3736716666
 21
173.5361696463
  0
ARC
  8
Layer0$C$L0
 62
     3
 10
-158.2896154812
 20
175.3616159668
 40
0.3939493608
 50
325.0911649317
 51
370.9088350683
  0
LINE
  8
Layer0$C$L0
 62
     3
 10
-153.9923243380
 20
175.1361696463
 11
-162.1461606047
 21
175.1361696463
  0
POLYLINE
  8
Layer0$C$L0
 62
     3
 66
     1
  0
VERTEX
  8
Layer0$C$L0
 62
     3
 10
-159.6791535983
 20
175.1361696463
  0
VERTEX
  8
Layer0$C$L0
 62
     3
 10
-159.7585039810
 20
175.1169549267
  0
VERTEX
  8
Layer0$C$L0
 62
     3
 10
-159.8348049730
 20
175.0600491788
  0
VERTEX
  8
Layer0$C$L0
 62
     3
 10
-159.9051243699
 20
174.9676392586
  0
VERTEX
  8
Layer0$C$L0
 62
     3
 10
-159.9667598368
 20
174.8432764275
  0
VERTEX
  8
Layer0$C$L0
 62
     3
 10
-160.0173427573
 20
174.6917398793
  0
VERTEX
  8
Layer0$C$L0
 62
     3
 10
-160.0549292580
 20
174.5188530786
  0
VERTEX
  8
Layer0$C$L0
 62
     3
 10
-160.0780749109
 20
174.3312599683
  0
VERTEX
  8
Layer0$C$L0
 62
     3
 10
-160.0858902414
 20
174.1361696463
  0
SEQEND
  8
Layer0$C$L0
 62
     3
  0
LINE
  8
Layer0$C$L0
 62
     3
 10
-160.0858902414
 20
174.1361696463
 11
-160.0858902414
 21
168.9361696463
  0
ARC
  8
Layer0$C$L0
 62
     3
 10
-165.5316126311
 20
171.8393548174
 40
4.9837296714
 50
150.9818083305
 51
183.4877420328
  0
LINE
  8
Layer0$C$L0
 62
     3
 10
-171.8736716666
 20
176.2361696463
 11
-171.8736716666
 21
166.8361696463
  0
POLYLINE
  8
Layer0$C$L0
 62
     3
 66
     1
  0
VERTEX
  8
Layer0$C$L0
 62
     3
 10
-169.3159124410
 20
172.3481412397
  0
VERTEX
  8
Layer0$C$L0
 62
     3
 10
-169.3828582913
 20
172.8211305988
  0
VERTEX
  8
Layer0$C$L0
 62
     3
 10
-169.4790003033
 20
173.2626472406
  0
VERTEX
  8
Layer0$C$L0
 62
     3
 10
-169.6019836581
 20
173.6618770399
  0
VERTEX
  8
Layer0$C$L0
 62
     3
 10
-169.7487961083
 20
174.0090416088
  0
VERTEX
  8
Layer0$C$L0
 62
     3
 10
-169.9158417573
 20
174.2956378000
  0
VERTEX
  8
Layer0$C$L0
 62
     3
 10
-170.0990291339
 20
174.5146459753
  0
VERTEX
  8
Layer0$C$L0
 62
     3
 10
-170.2938714059
 20
174.6607019387
  0
VERTEX
  8
Layer0$C$L0
 62
     3
 10
-170.4955962757
 20
174.7302283224
  0
VERTEX
  8
Layer0$C$L0
 62
     3
 10
-170.6992628696
 20
174.7215222073
  0
VERTEX
  8
Layer0$C$L0
 62
     3
 10
-170.8998827552
 20
174.6347968337
  0
VERTEX
  8
Layer0$C$L0
 62
     3
 10
-171.0925421230
 20
174.4721763774
  0
VERTEX
  8
Layer0$C$L0
 62
     3
 10
-171.2725221419
 20
174.2376439226
  0
VERTEX
  8
Layer0$C$L0
 62
     3
 10
-171.4354145378
 20
173.9369439037
  0
VERTEX
  8
Layer0$C$L0
 62
     3
 10
-171.5772295657
 20
173.5774414055
  0
VERTEX
  8
Layer0$C$L0
 62
     3
 10
-171.6944937315
 20
173.1679417700
  0
VERTEX
  8
Layer0$C$L0
 62
     3
 10
-171.7843348686
 20
172.7184749256
  0
VERTEX
  8
Layer0$C$L0
 62
     3
 10
-171.8445524863
 20
172.2400497228
  0
VERTEX
  8
Layer0$C$L0
 62
     3
 10
-171.8736716666
 20
171.7443842927
  0
SEQEND
  8
Layer0$C$L0
 62
     3
  0
ARC
  8
Layer0$C$L0
 62
     3
 10
-171.5736716666
 20
176.2361696463
 40
0.3000000000
 50
90.0000000000
 51
180.0000000000
  0
LINE
  8
Layer0$C$L0
 62
     3
 10
-153.5736716666
 20
176.2361696463
 11
-153.5736716666
 21
175.1405263954
  0
ARC
  8
Layer0$C$L0
 62
     3
 10
-153.8736716666
 20
176.2361696463
 40
0.3000000000
 50
0.0000000000
 51
90.0000000000
  0
ARC
  8
Layer0$C$L0
 62
     3
 10
-153.8736716666
 20
175.4361696463
 40
0.3000000000
 50
270.0000000000
 51
360.0000000000
  0
LINE
  8
Layer0$C$L0
 62
     3
 10
-153.8736716666
 20
175.1361696463
 11
-153.9923243380
 21
175.1361696463
  0
POLYLINE
  8
Layer0$C$L0
 62
     3
 66
     1
  0
VERTEX
  8
Layer0$C$L0
 62
     3
 10
-156.3403538651
 20
174.1361696463
  0
VERTEX
  8
Layer0$C$L0
 62
     3
 10
-156.3325385345
 20
174.3312599683
  0
VERTEX
  8
Layer0$C$L0
 62
     3
 10
-156.3093928817
 20
174.5188530786
  0
VERTEX
  8
Layer0$C$L0
 62
     3
 10
-156.2718063809
 20
174.6917398793
  0
VERTEX
  8
Layer0$C$L0
 62
     3
 10
-156.2212234605
 20
174.8432764275
  0
VERTEX
  8
Layer0$C$L0
 62
     3
 10
-156.1595879936
 20
174.9676392586
  0
VERTEX
  8
Layer0$C$L0
 62
     3
 10
-156.0892685966
 20
175.0600491788
  0
VERTEX
  8
Layer0$C$L0
 62
     3
 10
-156.0129676047
 20
175.1169549267
  0
VERTEX
  8
Layer0$C$L0
 62
     3
 10
-155.9336172220
 20
175.1361696463
  0
SEQEND
  8
Layer0$C$L0
 62
     3
  0
LINE
  8
Layer0$C$L0
 62
     3
 10
-156.3403538651
 20
174.1361696463
 11
-156.3403538651
 21
168.9361696463
  0
LINE
  8
Layer0$C$L0
 62
     3
 10
-153.2736716666
 20
173.5361696463
 11
-156.7470905082
 21
173.5361696463
  0
LINE
  8
Layer0$C$L0
 62
     3
 10
-156.7470905082
 20
175.1361696463
 11
-156.7470905082
 21
173.5361696463
  0
LINE
  8
Layer0$C$L0
 62
     3
 10
-152.9253627159
 20
176.2361696463
 11
-152.9253627159
 21
174.6844785969
  0
ARC
  8
Layer0$C$L0
 62
     3
 10
-153.3260352005
 20
176.3077811244
 40
0.4070216747
 50
349.8666229632
 51
394.1333770368
  0
ARC
  8
Layer0$C$L0
 62
     3
 10
-149.8736716666
 20
176.2361696463
 40
0.3000000000
 50
0.0000000000
 51
90.0000000000
  0
LINE
  8
Layer0$C$L0
 62
     3
 10
-149.5736716666
 20
176.4361696463
 11
-149.5736716666
 21
175.8361696463
  0
LINE
  8
Layer0$C$L0
 62
     3
 10
-156.7990609810
 20
175.1361696463
 11
-156.7990609810
 21
175.0361696463
  0
LINE
  8
Layer0$C$L0
 62
     3
 10
-158.1161762308
 20
175.0361696463
 11
-156.7470905082
 21
175.0361696463
  0
LINE
  8
Layer0$C$L0
 62
     3
 10
-156.8791187182
 20
174.5361696463
 11
-157.0824870398
 21
175.0361696463
  0
LINE
  8
Layer0$C$L0
 62
     3
 10
-156.8791187182
 20
173.9361696463
 11
-156.8791187182
 21
174.5361696463
  0
LINE
  8
Layer0$C$L0
 62
     3
 10
-157.0418133755
 20
173.9361696463
 11
-156.7470905082
 21
173.9361696463
  0
POLYLINE
  8
Layer0$C$L0
 62
     3
 66
     1
  0
VERTEX
  8
Layer0$C$L0
 62
     3
 10
-157.2045080327
 20
173.5361696463
  0
VERTEX
  8
Layer0$C$L0
 62
     3
 10
-157.2013819005
 20
173.6142057751
  0
VERTEX
  8
Layer0$C$L0
 62
     3
 10
-157.1921236393
 20
173.6892430192
  0
VERTEX
  8
Layer0$C$L0
 62
     3
 10
-157.1770890390
 20
173.7583977395
  0
VERTEX
  8
Layer0$C$L0
 62
     3
 10
-157.1568558709
 20
173.8190123587
  0
VERTEX
  8
Layer0$C$L0
 62
     3
 10
-157.1322016841
 20
173.8687574912
  0
VERTEX
  8
Layer0$C$L0
 62
     3
 10
-157.1040739253
 20
173.9057214593
  0
VERTEX
  8
Layer0$C$L0
 62
     3
 10
-157.0735535285
 20
173.9284837584
  0
VERTEX
  8
Layer0$C$L0
 62
     3
 10
-157.0418133755
 20
173.9361696463
  0
SEQEND
  8
Layer0$C$L0
 62
     3
  0
POLYLINE
  8
Layer0$C$L0
 62
     3
 66
     1
  0
VERTEX
  8
Layer0$C$L0
 62
     3
 10
-157.0418133755
 20
169.1361696463
  0
VERTEX
  8
Layer0$C$L0
 62
     3
 10
-157.0735535285
 20
169.1438555341
  0
VERTEX
  8
Layer0$C$L0
 62
     3
 10
-157.1040739253
 20
169.1666178333
  0
VERTEX
  8
Layer0$C$L0
 62
     3
 10
-157.1322016841
 20
169.2035818014
  0
VERTEX
  8
Layer0$C$L0
 62
     3
 10
-157.1568558709
 20
169.2533269338
  0
VERTEX
  8
Layer0$C$L0
 62
     3
 10
-157.1770890390
 20
169.3139415531
  0
VERTEX
  8
Layer0$C$L0
 62
     3
 10
-157.1921236393
 20
169.3830962733
  0
VERTEX
  8
Layer0$C$L0
 62
     3
 10
-157.2013819005
 20
169.4581335175
  0
VERTEX
  8
Layer0$C$L0
 62
     3
 10
-157.2045080327
 20
169.5361696463
  0
SEQEND
  8
Layer0$C$L0
 62
     3
  0
LINE
  8
Layer0$C$L0
 62
     3
 10
-157.0418133755
 20
169.1361696463
 11
-156.7470905082
 21
169.1361696463
  0
LINE
  8
Layer0$C$L0
 62
     3
 10
-156.8791187182
 20
168.5361696463
 11
-156.8791187182
 21
169.1361696463
  0
LINE
  8
Layer0$C$L0
 62
     3
 10
-157.0824870398
 20
168.0361696463
 11
-156.8791187182
 21
168.5361696463
  0
LINE
  8
Layer0$C$L0
 62
     3
 10
-157.7094395878
 20
168.0361696463
 11
-156.7470905082
 21
168.0361696463
  0
LINE
  8
Layer0$C$L0
 62
     3
 10
-157.5130497638
 20
169.5361696463
 11
-157.5130497638
 21
168.0361696463
  0
LINE
  8
Layer0$C$L0
 62
     3
 10
-157.5130497638
 20
169.5361696463
 11
-157.7094395878
 21
169.5361696463
  0
LINE
  8
Layer0$C$L0
 62
     3
 10
-157.7094395878
 20
169.5361696463
 11
-157.7094395878
 21
168.0361696463
  0
LINE
  8
Layer0$C$L0
 62
     3
 10
-158.7332596930
 20
168.0361696463
 11
-157.7094395878
 21
168.0361696463
  0
LINE
  8
Layer0$C$L0
 62
     3
 10
-157.9197864068
 20
169.3661758637
 11
-157.9197864068
 21
168.0361696463
  0
ARC
  8
Layer0$C$L0
 62
     3
 10
-158.7534651242
 20
169.9409864938
 40
1.0126339241
 50
309.0012898623
 51
325.4142420102
  0
LINE
  8
Layer0$C$L0
 62
     3
 10
-158.1161762308
 20
169.1540364759
 11
-158.1161762308
 21
168.0361696463
  0
LINE
  8
Layer0$C$L0
 62
     3
 10
-158.3265230499
 20
169.0478538044
 11
-158.3265230499
 21
168.0361696463
  0
ARC
  8
Layer0$C$L0
 62
     3
 10
-158.4247179619
 20
169.4554450595
 40
0.4192527543
 50
256.4546980310
 51
283.5453019690
  0
LINE
  8
Layer0$C$L0
 62
     3
 10
-158.5229128739
 20
169.0478538044
 11
-158.5229128739
 21
168.0361696463
  0
LINE
  8
Layer0$C$L0
 62
     3
 10
-158.7332596930
 20
169.1540364759
 11
-158.7332596930
 21
168.0361696463
  0
ARC
  8
Layer0$C$L0
 62
     3
 10
-158.0959707996
 20
169.9409864938
 40
1.0126339241
 50
214.5857579898
 51
230.9987101377
  0
LINE
  8
Layer0$C$L0
 62
     3
 10
-158.9296495170
 20
169.3661758637
 11
-158.9296495170
 21
168.0361696463
  0
LINE
  8
Layer0$C$L0
 62
     3
 10
-159.8482962127
 20
168.0361696463
 11
-158.7332596930
 21
168.0361696463
  0
LINE
  8
Layer0$C$L0
 62
     3
 10
-159.1399963361
 20
169.7592618958
 11
-159.1399963361
 21
168.0361696463
  0
LINE
  8
Layer0$C$L0
 62
     3
 10
-159.3363861601
 20
169.7861696463
 11
-159.3363861601
 21
168.0361696463
  0
LINE
  8
Layer0$C$L0
 62
     3
 10
-159.8482962127
 20
175.0361696463
 11
-159.9157062507
 21
174.8704357760
  0
LINE
  8
Layer0$C$L0
 62
     3
 10
-159.8482962127
 20
175.0361696463
 11
-158.1161762308
 21
175.0361696463
  0
LINE
  8
Layer0$C$L0
 62
     3
 10
-159.3363861601
 20
175.0361696463
 11
-159.3363861601
 21
173.2861696463
  0
LINE
  8
Layer0$C$L0
 62
     3
 10
-159.1399963361
 20
175.0361696463
 11
-159.1399963361
 21
173.3130773967
  0
LINE
  8
Layer0$C$L0
 62
     3
 10
-158.9296495170
 20
175.0361696463
 11
-158.9296495170
 21
173.7061634288
  0
ARC
  8
Layer0$C$L0
 62
     3
 10
-158.0959707996
 20
173.1313527987
 40
1.0126339241
 50
129.0012898622
 51
145.4142420102
  0
LINE
  8
Layer0$C$L0
 62
     3
 10
-158.7332596930
 20
175.0361696463
 11
-158.7332596930
 21
173.9183028166
  0
LINE
  8
Layer0$C$L0
 62
     3
 10
-158.5229128739
 20
175.0361696463
 11
-158.5229128739
 21
174.0244854881
  0
ARC
  8
Layer0$C$L0
 62
     3
 10
-158.4247179619
 20
173.6168942330
 40
0.4192527543
 50
76.4546980310
 51
103.5453019690
  0
LINE
  8
Layer0$C$L0
 62
     3
 10
-158.3265230499
 20
175.0361696463
 11
-158.3265230499
 21
174.0244854881
  0
LINE
  8
Layer0$C$L0
 62
     3
 10
-158.1161762308
 20
175.0361696463
 11
-158.1161762308
 21
173.9183028166
  0
ARC
  8
Layer0$C$L0
 62
     3
 10
-158.7534651242
 20
173.1313527987
 40
1.0126339241
 50
34.5857579897
 51
50.9987101378
  0
LINE
  8
Layer0$C$L0
 62
     3
 10
-157.9197864068
 20
175.0361696463
 11
-157.9197864068
 21
173.7061634288
  0
LINE
  8
Layer0$C$L0
 62
     3
 10
-157.7094395878
 20
175.0361696463
 11
-157.7094395878
 21
173.5361696463
  0
LINE
  8
Layer0$C$L0
 62
     3
 10
-157.5130497638
 20
173.5361696463
 11
-157.7094395878
 21
173.5361696463
  0
LINE
  8
Layer0$C$L0
 62
     3
 10
-157.5130497638
 20
175.0361696463
 11
-157.5130497638
 21
173.5361696463
  0
LINE
  8
Layer0$C$L0
 62
     3
 10
-156.7470905082
 20
174.5361696463
 11
-156.8791187182
 21
174.5361696463
  0
LINE
  8
Layer0$C$L0
 62
     3
 10
-156.8791187182
 20
168.5361696463
 11
-156.7470905082
 21
168.5361696463
  0
LINE
  8
Layer0$C$L0
 62
     3
 10
-156.9438998684
 20
169.9361696463
 11
-156.7470905082
 21
169.9361696463
  0
POLYLINE
  8
Layer0$C$L0
 62
     3
 66
     1
  0
VERTEX
  8
Layer0$C$L0
 62
     3
 10
-156.9438998684
 20
169.9361696463
  0
VERTEX
  8
Layer0$C$L0
 62
     3
 10
-156.9908913024
 20
169.9326665899
  0
VERTEX
  8
Layer0$C$L0
 62
     3
 10
-157.0910993936
 20
169.8900817743
  0
VERTEX
  8
Layer0$C$L0
 62
     3
 10
-157.1519808254
 20
169.8133229379
  0
VERTEX
  8
Layer0$C$L0
 62
     3
 10
-157.1873923958
 20
169.7102151492
  0
VERTEX
  8
Layer0$C$L0
 62
     3
 10
-157.2033043171
 20
169.5846373321
  0
VERTEX
  8
Layer0$C$L0
 62
     3
 10
-157.2045080327
 20
169.5361696463
  0
SEQEND
  8
Layer0$C$L0
 62
     3
  0
POLYLINE
  8
Layer0$C$L0
 62
     3
 66
     1
  0
VERTEX
  8
Layer0$C$L0
 62
     3
 10
-156.9438998684
 20
173.1361696463
  0
VERTEX
  8
Layer0$C$L0
 62
     3
 10
-156.9908913024
 20
173.1396727026
  0
VERTEX
  8
Layer0$C$L0
 62
     3
 10
-157.0910993936
 20
173.1822575182
  0
VERTEX
  8
Layer0$C$L0
 62
     3
 10
-157.1519808254
 20
173.2590163546
  0
VERTEX
  8
Layer0$C$L0
 62
     3
 10
-157.1873923958
 20
173.3621241434
  0
VERTEX
  8
Layer0$C$L0
 62
     3
 10
-157.2033043171
 20
173.4877019604
  0
VERTEX
  8
Layer0$C$L0
 62
     3
 10
-157.2045080327
 20
173.5361696463
  0
SEQEND
  8
Layer0$C$L0
 62
     3
  0
LINE
  8
Layer0$C$L0
 62
     3
 10
-156.9438998684
 20
173.1361696463
 11
-156.7470905082
 21
173.1361696463
  0
ARC
  8
Layer0$C$L0
 62
     3
 10
-159.0636182623
 20
169.9876708830
 40
4.0432058815
 50
73.1376228161
 51
76.4479031561
  0
ARC
  8
Layer0$C$L0
 62
     3
 10
-159.0636182623
 20
173.0846684096
 40
4.0432058815
 50
283.5520968439
 51
286.8623771839
  0
LINE
  8
Layer0$C$L0
 62
     3
 10
-157.9027849657
 20
167.6361696463
 11
-157.9027849657
 21
166.8361696463
  0
POLYLINE
  8
Layer0$C$L0
 62
     3
 66
     1
  0
VERTEX
  8
Layer0$C$L0
 62
     3
 10
-169.3159124410
 20
170.7241980529
  0
VERTEX
  8
Layer0$C$L0
 62
     3
 10
-169.2614867195
 20
171.3189619910
  0
VERTEX
  8
Layer0$C$L0
 62
     3
 10
-169.2560730241
 20
171.5361696463
  0
SEQEND
  8
Layer0$C$L0
 62
     3
  0
ARC
  8
Layer0$C$L0
 62
     3
 10
-158.3034574503
 20
166.7645581682
 40
0.4070216747
 50
325.8666229632
 51
370.1333770368
  0
LINE
  8
Layer0$C$L0
 62
     3
 10
-162.1461606047
 20
167.9361696463
 11
-153.8736716666
 21
167.9361696463
  0
ARC
  8
Layer0$C$L0
 62
     3
 10
-158.3034574503
 20
167.7077811244
 40
0.4070216747
 50
349.8666229632
 51
394.1333770368
  0
POLYLINE
  8
Layer0$C$L0
 62
     3
 66
     1
  0
VERTEX
  8
Layer0$C$L0
 62
     3
 10
-160.0858902414
 20
168.9361696463
  0
VERTEX
  8
Layer0$C$L0
 62
     3
 10
-160.0780749109
 20
168.7410793243
  0
VERTEX
  8
Layer0$C$L0
 62
     3
 10
-160.0549292580
 20
168.5534862139
  0
VERTEX
  8
Layer0$C$L0
 62
     3
 10
-160.0173427573
 20
168.3805994133
  0
VERTEX
  8
Layer0$C$L0
 62
     3
 10
-159.9667598368
 20
168.2290628651
  0
VERTEX
  8
Layer0$C$L0
 62
     3
 10
-159.9051243699
 20
168.1047000340
  0
VERTEX
  8
Layer0$C$L0
 62
     3
 10
-159.8348049730
 20
168.0122901138
  0
VERTEX
  8
Layer0$C$L0
 62
     3
 10
-159.7585039810
 20
167.9553843659
  0
VERTEX
  8
Layer0$C$L0
 62
     3
 10
-159.6791535983
 20
167.9361696463
  0
SEQEND
  8
Layer0$C$L0
 62
     3
  0
ARC
  8
Layer0$C$L0
 62
     3
 10
-165.5316126311
 20
171.2329844752
 40
4.9837296714
 50
176.5122579672
 51
209.0181916695
  0
POLYLINE
  8
Layer0$C$L0
 62
     3
 66
     1
  0
VERTEX
  8
Layer0$C$L0
 62
     3
 10
-171.8736716666
 20
171.3279549998
  0
VERTEX
  8
Layer0$C$L0
 62
     3
 10
-171.8445524863
 20
170.8322895698
  0
VERTEX
  8
Layer0$C$L0
 62
     3
 10
-171.7843348686
 20
170.3538643669
  0
VERTEX
  8
Layer0$C$L0
 62
     3
 10
-171.6944937315
 20
169.9043975225
  0
VERTEX
  8
Layer0$C$L0
 62
     3
 10
-171.5772295657
 20
169.4948978871
  0
VERTEX
  8
Layer0$C$L0
 62
     3
 10
-171.4354145378
 20
169.1353953889
  0
VERTEX
  8
Layer0$C$L0
 62
     3
 10
-171.2725221419
 20
168.8346953699
  0
VERTEX
  8
Layer0$C$L0
 62
     3
 10
-171.0925421230
 20
168.6001629151
  0
VERTEX
  8
Layer0$C$L0
 62
     3
 10
-170.8998827552
 20
168.4375424589
  0
VERTEX
  8
Layer0$C$L0
 62
     3
 10
-170.6992628696
 20
168.3508170852
  0
VERTEX
  8
Layer0$C$L0
 62
     3
 10
-170.4955962757
 20
168.3421109702
  0
VERTEX
  8
Layer0$C$L0
 62
     3
 10
-170.2938714059
 20
168.4116373538
  0
VERTEX
  8
Layer0$C$L0
 62
     3
 10
-170.0990291339
 20
168.5576933172
  0
VERTEX
  8
Layer0$C$L0
 62
     3
 10
-169.9158417573
 20
168.7767014925
  0
VERTEX
  8
Layer0$C$L0
 62
     3
 10
-169.7487961083
 20
169.0632976837
  0
VERTEX
  8
Layer0$C$L0
 62
     3
 10
-169.6019836581
 20
169.4104622527
  0
VERTEX
  8
Layer0$C$L0
 62
     3
 10
-169.4790003033
 20
169.8096920520
  0
VERTEX
  8
Layer0$C$L0
 62
     3
 10
-169.3828582913
 20
170.2512086937
  0
VERTEX
  8
Layer0$C$L0
 62
     3
 10
-169.3159124410
 20
170.7241980529
  0
SEQEND
  8
Layer0$C$L0
 62
     3
  0
ARC
  8
Layer0$C$L0
 62
     3
 10
-171.5736716666
 20
166.8361696463
 40
0.3000000000
 50
180.0000000000
 51
270.0000000000
  0
ARC
  8
Layer0$C$L0
 62
     3
 10
-153.8736716666
 20
167.6361696463
 40
0.3000000000
 50
0.0000000000
 51
90.0000000000
  0
LINE
  8
Layer0$C$L0
 62
     3
 10
-153.5736716666
 20
167.9318128971
 11
-153.5736716666
 21
166.8361696463
  0
ARC
  8
Layer0$C$L0
 62
     3
 10
-153.8736716666
 20
166.8361696463
 40
0.3000000000
 50
270.0000000000
 51
360.0000000000
  0
POLYLINE
  8
Layer0$C$L0
 62
     3
 66
     1
  0
VERTEX
  8
Layer0$C$L0
 62
     3
 10
-155.9336172220
 20
167.9361696463
  0
VERTEX
  8
Layer0$C$L0
 62
     3
 10
-156.0129676047
 20
167.9553843659
  0
VERTEX
  8
Layer0$C$L0
 62
     3
 10
-156.0892685966
 20
168.0122901138
  0
VERTEX
  8
Layer0$C$L0
 62
     3
 10
-156.1595879936
 20
168.1047000340
  0
VERTEX
  8
Layer0$C$L0
 62
     3
 10
-156.2212234605
 20
168.2290628651
  0
VERTEX
  8
Layer0$C$L0
 62
     3
 10
-156.2718063809
 20
168.3805994133
  0
VERTEX
  8
Layer0$C$L0
 62
     3
 10
-156.3093928817
 20
168.5534862139
  0
VERTEX
  8
Layer0$C$L0
 62
     3
 10
-156.3325385345
 20
168.7410793243
  0
VERTEX
  8
Layer0$C$L0
 62
     3
 10
-156.3403538651
 20
168.9361696463
  0
SEQEND
  8
Layer0$C$L0
 62
     3
  0
LINE
  8
Layer0$C$L0
 62
     3
 10
-159.7569416669
 20
167.9546281376
 11
-159.7569416669
 21
168.0361696463
  0
LINE
  8
Layer0$C$L0
 62
     3
 10
-156.7470905082
 20
168.0361696463
 11
-156.7470905082
 21
173.2361696463
  0
LINE
  8
Layer0$C$L0
 62
     3
 10
-156.6250695152
 20
173.5361696463
 11
-156.7470905082
 21
173.2361696463
  0
LINE
  8
Layer0$C$L0
 62
     3
 10
-151.0540564243
 20
173.2361696463
 11
-147.0736716666
 21
173.2361696463
  0
POLYLINE
  8
Layer0$C$L0
 62
     3
 66
     1
  0
VERTEX
  8
Layer0$C$L0
 62
     3
 10
-150.1978311525
 20
173.2361696463
  0
VERTEX
  8
Layer0$C$L0
 62
     3
 10
-150.1736088384
 20
173.2304052304
  0
VERTEX
  8
Layer0$C$L0
 62
     3
 10
-150.1503173743
 20
173.2133335060
  0
VERTEX
  8
Layer0$C$L0
 62
     3
 10
-150.1288518380
 20
173.1856105300
  0
VERTEX
  8
Layer0$C$L0
 62
     3
 10
-150.1100371381
 20
173.1483016806
  0
VERTEX
  8
Layer0$C$L0
 62
     3
 10
-150.0945963129
 20
173.1028407162
  0
VERTEX
  8
Layer0$C$L0
 62
     3
 10
-150.0831227447
 20
173.0509746760
  0
VERTEX
  8
Layer0$C$L0
 62
     3
 10
-150.0760573563
 20
172.9946967429
  0
VERTEX
  8
Layer0$C$L0
 62
     3
 10
-150.0736716666
 20
172.9361696463
  0
SEQEND
  8
Layer0$C$L0
 62
     3
  0
ARC
  8
Layer0$C$L0
 62
     3
 10
-150.9736716666
 20
172.9361696463
 40
0.3000000000
 50
90.0000000000
 51
180.0000000000
  0
POLYLINE
  8
Layer0$C$L0
 62
     3
 66
     1
  0
VERTEX
  8
Layer0$C$L0
 62
     3
 10
-148.2978311525
 20
173.2361696463
  0
VERTEX
  8
Layer0$C$L0
 62
     3
 10
-148.2736088384
 20
173.2304052304
  0
VERTEX
  8
Layer0$C$L0
 62
     3
 10
-148.2503173743
 20
173.2133335060
  0
VERTEX
  8
Layer0$C$L0
 62
     3
 10
-148.2288518380
 20
173.1856105300
  0
VERTEX
  8
Layer0$C$L0
 62
     3
 10
-148.2100371381
 20
173.1483016806
  0
VERTEX
  8
Layer0$C$L0
 62
     3
 10
-148.1945963129
 20
173.1028407162
  0
VERTEX
  8
Layer0$C$L0
 62
     3
 10
-148.1831227447
 20
173.0509746760
  0
VERTEX
  8
Layer0$C$L0
 62
     3
 10
-148.1760573563
 20
172.9946967429
  0
VERTEX
  8
Layer0$C$L0
 62
     3
 10
-148.1736716666
 20
172.9361696463
  0
SEQEND
  8
Layer0$C$L0
 62
     3
  0
LINE
  8
Layer0$C$L0
 62
     3
 10
-150.0736716666
 20
172.9361696463
 11
-150.0736716666
 21
170.1361696463
  0
LINE
  8
Layer0$C$L0
 62
     3
 10
-148.1736716666
 20
172.9361696463
 11
-148.1736716666
 21
170.1361696463
  0
ARC
  8
Layer0$C$L0
 62
     3
 10
-150.9736716666
 20
170.1361696463
 40
0.3000000000
 50
180.0000000000
 51
270.0000000000
  0
LINE
  8
Layer0$C$L0
 62
     3
 10
-147.0736716666
 20
169.8361696463
 11
-151.0540564243
 21
169.8361696463
  0
POLYLINE
  8
Layer0$C$L0
 62
     3
 66
     1
  0
VERTEX
  8
Layer0$C$L0
 62
     3
 10
-150.1978311525
 20
169.8361696463
  0
VERTEX
  8
Layer0$C$L0
 62
     3
 10
-150.1736088384
 20
169.8419340622
  0
VERTEX
  8
Layer0$C$L0
 62
     3
 10
-150.1503173743
 20
169.8590057865
  0
VERTEX
  8
Layer0$C$L0
 62
     3
 10
-150.1288518380
 20
169.8867287626
  0
VERTEX
  8
Layer0$C$L0
 62
     3
 10
-150.1100371380
 20
169.9240376119
  0
VERTEX
  8
Layer0$C$L0
 62
     3
 10
-150.0945963129
 20
169.9694985764
  0
VERTEX
  8
Layer0$C$L0
 62
     3
 10
-150.0831227447
 20
170.0213646166
  0
VERTEX
  8
Layer0$C$L0
 62
     3
 10
-150.0760573563
 20
170.0776425497
  0
VERTEX
  8
Layer0$C$L0
 62
     3
 10
-150.0736716666
 20
170.1361696463
  0
SEQEND
  8
Layer0$C$L0
 62
     3
  0
POLYLINE
  8
Layer0$C$L0
 62
     3
 66
     1
  0
VERTEX
  8
Layer0$C$L0
 62
     3
 10
-148.2978311525
 20
169.8361696463
  0
VERTEX
  8
Layer0$C$L0
 62
     3
 10
-148.2736088384
 20
169.8419340622
  0
VERTEX
  8
Layer0$C$L0
 62
     3
 10
-148.2503173743
 20
169.8590057865
  0
VERTEX
  8
Layer0$C$L0
 62
     3
 10
-148.2288518380
 20
169.8867287626
  0
VERTEX
  8
Layer0$C$L0
 62
     3
 10
-148.2100371380
 20
169.9240376119
  0
VERTEX
  8
Layer0$C$L0
 62
     3
 10
-148.1945963129
 20
169.9694985764
  0
VERTEX
  8
Layer0$C$L0
 62
     3
 10
-148.1831227447
 20
170.0213646166
  0
VERTEX
  8
Layer0$C$L0
 62
     3
 10
-148.1760573563
 20
170.0776425497
  0
VERTEX
  8
Layer0$C$L0
 62
     3
 10
-148.1736716666
 20
170.1361696463
  0
SEQEND
  8
Layer0$C$L0
 62
     3
  0
LINE
  8
Layer0$C$L0
 62
     3
 10
-152.9253627159
 20
166.8361696463
 11
-152.9253627159
 21
168.3878606956
  0
POLYLINE
  8
Layer0$C$L0
 62
     3
 66
     1
  0
VERTEX
  8
Layer0$C$L0
 62
     3
 10
-151.2736716666
 20
173.1704549786
  0
VERTEX
  8
Layer0$C$L0
 62
     3
 10
-151.2040564243
 20
173.2093623783
  0
VERTEX
  8
Layer0$C$L0
 62
     3
 10
-151.0540564243
 20
173.2361696463
  0
SEQEND
  8
Layer0$C$L0
 62
     3
  0
POLYLINE
  8
Layer0$C$L0
 62
     3
 66
     1
  0
VERTEX
  8
Layer0$C$L0
 62
     3
 10
-151.0540564243
 20
169.8361696463
  0
VERTEX
  8
Layer0$C$L0
 62
     3
 10
-151.2040564243
 20
169.8629769143
  0
VERTEX
  8
Layer0$C$L0
 62
     3
 10
-151.2736716666
 20
169.9018843139
  0
SEQEND
  8
Layer0$C$L0
 62
     3
  0
ARC
  8
Layer0$C$L0
 62
     3
 10
-153.3121932315
 20
166.7616159668
 40
0.3939493608
 50
325.0911649317
 51
370.9088350683
  0
LINE
  8
Layer0$C$L0
 62
     3
 10
-149.5736716666
 20
173.4361696463
 11
-149.5736716666
 21
173.2361696463
  0
LINE
  8
Layer0$C$L0
 62
     3
 10
-149.5736716666
 20
169.8361696463
 11
-149.5736716666
 21
169.6361696463
  0
ARC
  8
Layer0$C$L0
 62
     3
 10
-149.8736716666
 20
166.8361696463
 40
0.3000000000
 50
270.0000000000
 51
360.0000000000
  0
LINE
  8
Layer0$C$L0
 62
     3
 10
-171.9736716666
 20
167.4984336259
 11
-171.8736716666
 21
167.4984336259
  0
LINE
  8
Layer0$C$L0
 62
     3
 10
-171.9736716666
 20
167.9762108994
 11
-171.8736716666
 21
167.9762108994
  0
POLYLINE
  8
Layer0$C$L0
 62
     3
 66
     1
  0
VERTEX
  8
Layer0$C$L0
 62
     3
 10
-171.9736716666
 20
167.4984336259
  0
VERTEX
  8
Layer0$C$L0
 62
     3
 10
-171.9902160547
 20
167.5004251289
  0
VERTEX
  8
Layer0$C$L0
 62
     3
 10
-172.0048951526
 20
167.5061744835
  0
VERTEX
  8
Layer0$C$L0
 62
     3
 10
-172.0160579130
 20
167.5150347373
  0
VERTEX
  8
Layer0$C$L0
 62
     3
 10
-172.0224470327
 20
167.5260112006
  0
VERTEX
  8
Layer0$C$L0
 62
     3
 10
-172.0233467315
 20
167.5297639522
  0
VERTEX
  8
Layer0$C$L0
 62
     3
 10
-172.0236716666
 20
167.5337880447
  0
SEQEND
  8
Layer0$C$L0
 62
     3
  0
LINE
  8
Layer0$C$L0
 62
     3
 10
-172.0236716666
 20
167.3951934430
 11
-172.0236716666
 21
167.9262108994
  0
ARC
  8
Layer0$C$L0
 62
     3
 10
-171.9736716666
 20
167.9262108994
 40
5.0000000000E-02
 50
89.9999999999
 51
180.0000000002
  0
LINE
  8
Layer0$C$L0
 62
     3
 10
-172.0236716666
 20
168.4048268520
 11
-172.0236716666
 21
168.8727409725
  0
POLYLINE
  8
Layer0$C$L0
 62
     3
 66
     1
  0
VERTEX
  8
Layer0$C$L0
 62
     3
 10
-172.0236716666
 20
168.7341644926
  0
VERTEX
  8
Layer0$C$L0
 62
     3
 10
-172.0233255580
 20
168.7383151286
  0
VERTEX
  8
Layer0$C$L0
 62
     3
 10
-172.0224476298
 20
168.7419356178
  0
VERTEX
  8
Layer0$C$L0
 62
     3
 10
-172.0160592436
 20
168.7529070319
  0
VERTEX
  8
Layer0$C$L0
 62
     3
 10
-172.0048964671
 20
168.7617636791
  0
VERTEX
  8
Layer0$C$L0
 62
     3
 10
-171.9902167490
 20
168.7675107725
  0
VERTEX
  8
Layer0$C$L0
 62
     3
 10
-171.9736716666
 20
168.7695014667
  0
SEQEND
  8
Layer0$C$L0
 62
     3
  0
ARC
  8
Layer0$C$L0
 62
     3
 10
-171.9736716666
 20
168.4048268520
 40
5.0000000000E-02
 50
180.0000000001
 51
269.9999999999
  0
LINE
  8
Layer0$C$L0
 62
     3
 10
-171.9736716666
 20
168.3548268520
 11
-171.8736716666
 21
168.3548268520
  0
LINE
  8
Layer0$C$L0
 62
     3
 10
-171.9736716666
 20
168.7695014667
 11
-171.8736716666
 21
168.7695014667
  0
ARC
  8
Layer0$C$L0
 62
     3
 10
-171.9736662636
 20
167.3951897146
 40
5.0005403089E-02
 50
179.9957280161
 51
269.9938093439
  0
LINE
  8
Layer0$C$L0
 62
     3
 10
-171.9736716666
 20
167.3451843118
 11
-171.8736716666
 21
167.3451843118
  0
ARC
  8
Layer0$C$L0
 62
     3
 10
-171.9736658589
 20
168.8727449733
 40
5.0005807848E-02
 50
90.0066543477
 51
180.0045840701
  0
LINE
  8
Layer0$C$L0
 62
     3
 10
-171.9736716666
 20
168.9227507808
 11
-171.8736716666
 21
168.9227507808
  0
LINE
  8
Layer0$C$L0
 62
     3
 10
-171.9236716666
 20
169.7124475854
 11
-171.8736716666
 21
169.7124475854
  0
LINE
  8
Layer0$C$L0
 62
     3
 10
-171.9236716666
 20
173.0114684541
 11
-171.8736716666
 21
173.0114684541
  0
LINE
  8
Layer0$C$L0
 62
     3
 10
-172.0236716666
 20
169.7615956260
 11
-172.0236716666
 21
172.9114684541
  0
ARC
  8
Layer0$C$L0
 62
     3
 10
-171.9236716666
 20
172.9114684541
 40
0.1000000000
 50
90.0000000000
 51
179.9999999999
  0
ARC
  8
Layer0$C$L0
 62
     3
 10
-171.9236716666
 20
169.8124475854
 40
0.1000000000
 50
180.0000000000
 51
270.0000000000
  0
LINE
  8
Layer0$C$L0
 62
     3
 10
-171.9736716666
 20
168.3548268520
 11
-171.9736716666
 21
167.9762108994
  0
LINE
  8
Layer0$C$L0
 62
     3
 10
-172.0236716666
 20
168.1294602135
 11
-171.8736716666
 21
168.1294602135
  0
LINE
  8
Layer0$C$L0
 62
     3
 10
-172.0236716666
 20
168.0335944058
 11
-172.0236716666
 21
168.4043507730
  0
LINE
  8
Layer0$C$L0
 62
     3
 10
-159.8482962127
 20
168.0361696463
 11
-159.8482962127
 21
168.2130204884
  0
LINE
  8
Layer0$C$L0
 62
     3
 10
-159.8482962127
 20
168.8689916467
 11
-159.8482962127
 21
169.7861696463
  0
LINE
  8
Layer0$C$L0
 62
     3
 10
-159.8482962127
 20
173.2861696463
 11
-159.8482962127
 21
173.5361696463
  0
LINE
  8
Layer0$C$L0
 62
     3
 10
-159.9962865673
 20
173.5361696463
 11
-159.8482962127
 21
173.5361696463
  0
LINE
  8
Layer0$C$L0
 62
     3
 10
-171.9236716666
 20
169.6615956260
 11
-171.8736716666
 21
169.6615956260
  0
ARC
  8
Layer0$C$L0
 62
     3
 10
-171.9236716666
 20
169.7615956260
 40
1.0000000000E-01
 50
180.0000000000
 51
270.0000000000
  0
LINE
  8
Layer0$C$L0
 62
     3
 10
-159.2786123840
 20
175.0361696463
 11
-159.2786123840
 21
175.1361696463
  0
LINE
  8
Layer0$C$L0
 62
     3
 10
-159.0559980414
 20
175.1361696463
 11
-159.0559980414
 21
175.0361696463
  0
LINE
  8
Layer0$C$L0
 62
     3
 10
-158.3146385733
 20
175.1361696463
 11
-158.4059931190
 21
175.0361696463
  0
LINE
  8
Layer0$C$L0
 62
     3
 10
-158.8370707857
 20
175.0361696463
 11
-158.7276071578
 21
175.1361696463
  0
LINE
  8
Layer0$C$L0
 62
     3
 10
-157.1270294783
 20
175.0361696463
 11
-157.1270294783
 21
175.1361696463
  0
LINE
  8
Layer0$C$L0
 62
     3
 10
-156.9643348211
 20
175.0361696463
 11
-156.9643348211
 21
175.1361696463
  0
LINE
  8
Layer0$C$L0
 62
     3
 10
-159.9317070642
 20
174.9200386211
 11
-159.9317070642
 21
174.8730745609
  0
LINE
  8
Layer0$C$L0
 62
     3
 10
-159.9317070642
 20
173.8273104022
 11
-159.9317070642
 21
173.5361696463
  0
ARC
  8
Layer0$C$L0
 62
     3
 10
-171.9236716666
 20
169.7614415291
 40
1.0000000000E-01
 50
180.0000000000
 51
270.0000000000
  0
LINE
  8
Layer0$C$L0
 62
     3
 10
-171.9236716666
 20
169.6614415291
 11
-171.8736716666
 21
169.6614415291
  0
LINE
  8
Layer0$C$L0
 62
     3
 10
-141.3736716666
 20
159.4361696463
 11
-142.3736716666
 21
159.4361696463
  0
LINE
  8
Layer0$C$L0
 62
     3
 10
-141.3736716666
 20
162.0361696463
 11
-145.8736716666
 21
162.0361696463
  0
ARC
  8
Layer0$C$L0
 62
     3
 10
-145.3736716666
 20
162.5361696463
 40
0.5000000000
 50
180.0000000000
 51
270.0000000000
  0
LINE
  8
Layer0$C$L0
 62
     3
 10
-145.8736716666
 20
162.5361696463
 11
-145.8736716666
 21
164.5361696463
  0
LINE
  8
Layer0$C$L0
 62
     3
 10
-140.3736716666
 20
169.3818965060
 11
-140.3736716666
 21
157.5361696463
  0
LINE
  8
Layer0$C$L0
 62
     3
 10
-141.3736716666
 20
162.0361696463
 11
-141.3736716666
 21
159.4361696463
  0
LINE
  8
Layer0$C$L0
 62
     3
 10
-142.3736716666
 20
159.5361696463
 11
-142.3736716666
 21
157.5361696463
  0
LINE
  8
Layer0$C$L0
 62
     3
 10
-145.8736716666
 20
164.5361696463
 11
-140.3736716666
 21
164.5361696463
  0
LINE
  8
Layer0$C$L0
 62
     3
 10
-142.0736716666
 20
157.5361696463
 11
-142.3736716666
 21
157.8361696463
  0
LINE
  8
Layer0$C$L0
 62
     3
 10
-145.8736716666
 20
162.0361696463
 11
-146.5972784643
 21
162.3979730451
  0
LINE
  8
Layer0$C$L0
 62
     3
 10
-146.5173456094
 20
164.1430674634
 11
-145.8736716666
 21
164.3361696463
  0
ARC
  8
Layer0$C$L0
 62
     3
 10
-146.3736716666
 20
163.6641543208
 40
0.5000000000
 50
106.6992442340
 51
180.0000000000
  0
LINE
  8
Layer0$C$L0
 62
     3
 10
-146.8736716666
 20
162.8451866406
 11
-146.8736716666
 21
163.6641543208
  0
ARC
  8
Layer0$C$L0
 62
     3
 10
-146.3736716666
 20
162.8451866406
 40
0.5000000000
 50
180.0000000000
 51
243.4349488229
  0
LINE
  8
Layer0$C$L0
 62
     3
 10
-142.1736716666
 20
157.6361696463
 11
-142.1736716666
 21
157.5361696463
  0
LINE
  8
Layer0$C$L0
 62
     3
 10
-142.1736716666
 20
169.3818965060
 11
-142.1736716666
 21
165.7973854662
  0
LINE
  8
Layer0$C$L0
 62
     3
 10
-142.3736716666
 20
165.9965326836
 11
-142.3736716666
 21
169.3818965060
  0
LINE
  8
Layer0$C$L0
 62
     3
 10
-138.4736716666
 20
162.6077425215
 11
-138.4736716666
 21
157.5361696463
  0
ARC
  8
Layer0$C$L0
 62
     3
 10
-136.4736716666
 20
162.6077425215
 40
2.0000000000
 50
135.0000000000
 51
180.0000000000
  0
LINE
  8
Layer0$C$L0
 62
     3
 10
-136.9736716666
 20
164.9361696463
 11
-137.8878852289
 21
164.0219560839
  0
LINE
  8
Layer0$C$L0
 62
     3
 10
-136.9736716666
 20
164.9361696463
 11
-136.9736716666
 21
174.5549459508
  0
ARC
  8
Layer0$C$L0
 62
     3
 10
-134.9736716666
 20
161.8077425215
 40
2.0000000000
 50
135.0000000000
 51
180.0000000000
  0
LINE
  8
Layer0$C$L0
 62
     3
 10
-136.9736716666
 20
161.8077425215
 11
-136.9736716666
 21
156.0361696463
  0
LINE
  8
Layer0$C$L0
 62
     3
 10
-141.5736716666
 20
159.5361696463
 11
-142.5736716666
 21
159.5361696463
  0
LINE
  8
Layer0$C$L0
 62
     3
 10
-138.4736716666
 20
157.5361696463
 11
-142.5736716666
 21
157.5361696463
  0
LINE
  8
Layer0$C$L0
 62
     3
 10
-141.5736716666
 20
162.0361696463
 11
-141.5736716666
 21
159.5361696463
  0
LINE
  8
Layer0$C$L0
 62
     3
 10
-142.5736716666
 20
157.5361696463
 11
-142.5736716666
 21
159.5361696463
  0
ARC
  8
Layer0$C$L0
 62
     3
 10
-143.5736716666
 20
160.2836758652
 40
0.5000000000
 50
95.7105931375
 51
180.0000000000
  0
LINE
  8
Layer0$C$L0
 62
     3
 10
-144.0736716666
 20
147.1361696463
 11
-144.0736716666
 21
162.0361696463
  0
LINE
  8
Layer0$C$L0
 62
     3
 10
-143.6234235261
 20
160.7811944603
 11
-141.5736716666
 21
160.9861696463
  0
ARC
  8
Layer0$C$L0
 62
     3
 10
-137.4736716666
 20
156.0361696463
 40
0.5000000000
 50
270.0000000000
 51
360.0000000000
  0
ARC
  8
Layer0$C$L0
 62
     3
 10
-143.5736716666
 20
156.0361696463
 40
0.5000000000
 50
180.0000000000
 51
270.0000000000
  0
LINE
  8
Layer0$C$L0
 62
     3
 10
-137.4736716666
 20
155.5361696463
 11
-143.5736716666
 21
155.5361696463
  0
ARC
  8
Layer0$C$L0
 62
     3
 10
-137.4736716666
 20
164.9645967710
 40
2.0000000000
 50
315.0000000000
 51
360.0000000000
  0
LINE
  8
Layer0$C$L0
 62
     3
 10
-136.0594581042
 20
163.5503832086
 11
-136.3878852289
 21
163.2219560839
  0
LINE
  8
Layer0$C$L0
 62
     3
 10
-135.4736716666
 20
175.2168644274
 11
-135.4736716666
 21
164.9645967710
  0
LINE
  8
Layer0$C$L0
 62
     3
 10
-144.0736716666
 20
164.5361696463
 11
-144.0736716666
 21
175.9361696463
  0
LINE
  8
Layer0$C$L0
 62
     3
 10
-136.9736716666
 20
169.3818965060
 11
-142.5736716666
 21
169.3818965060
  0
LINE
  8
Layer0$C$L0
 62
     3
 10
-142.5736716666
 20
171.1182580343
 11
-143.5736716666
 21
171.1182580343
  0
ARC
  8
Layer0$C$L0
 62
     3
 10
-143.6003057750
 20
171.5919574103
 40
0.4744475467
 50
183.8696391607
 51
273.2181105445
  0
ARC
  8
Layer0$C$L0
 62
     3
 10
-143.5736716666
 20
175.2168644274
 40
0.5000000000
 50
90.0000000000
 51
180.0000000000
  0
POLYLINE
  8
Layer0$C$L0
 62
     3
 66
     1
  0
VERTEX
  8
Layer0$C$L0
 62
     3
 10
-141.5736716666
 20
165.1962902758
  0
VERTEX
  8
Layer0$C$L0
 62
     3
 10
-142.0727389265
 20
165.6966527683
  0
VERTEX
  8
Layer0$C$L0
 62
     3
 10
-142.5736716666
 20
166.1950753885
  0
SEQEND
  8
Layer0$C$L0
 62
     3
  0
LINE
  8
Layer0$C$L0
 62
     3
 10
-143.0736716666
 20
161.5361696463
 11
-143.0736716666
 21
162.0739638150
  0
LINE
  8
Layer0$C$L0
 62
     3
 10
-143.0736716666
 20
164.5361696463
 11
-143.0736716666
 21
167.6361696463
  0
LINE
  8
Layer0$C$L0
 62
     3
 10
-144.0736716666
 20
167.6361696463
 11
-143.0736716666
 21
167.6361696463
  0
LINE
  8
Layer0$C$L0
 62
     3
 10
-141.5736716666
 20
165.1962902758
 11
-141.5736716666
 21
164.5361696463
  0
LINE
  8
Layer0$C$L0
 62
     3
 10
-142.5736716666
 20
171.1182580343
 11
-142.5736716666
 21
166.1950753885
  0
LINE
  8
Layer0$C$L0
 62
     3
 10
-143.0736716666
 20
161.5361696463
 11
-144.0736716666
 21
161.5361696463
  0
LINE
  8
Layer0$C$L0
 62
     3
 10
-142.5736716666
 20
155.5361696463
 11
-142.5736716666
 21
147.1361696463
  0
LINE
  8
Layer0$C$L0
 62
     3
 10
-144.0736716666
 20
168.6361696463
 11
-142.5736716666
 21
168.6361696463
  0
LINE
  8
Layer0$C$L0
 62
     3
 10
-143.1842397094
 20
164.5361696463
 11
-143.1842397094
 21
167.0861696463
  0
LINE
  8
Layer0$C$L0
 62
     3
 10
-143.8903723991
 20
161.9181888795
 11
-143.8334810774
 21
162.0361696463
  0
LINE
  8
Layer0$C$L0
 62
     3
 10
-143.4444270357
 20
161.9263613377
 11
-143.4444270357
 21
162.0361696463
  0
POLYLINE
  8
Layer0$C$L0
 62
     3
 66
     1
  0
VERTEX
  8
Layer0$C$L0
 62
     3
 10
-143.6661075383
 20
164.6956139236
  0
VERTEX
  8
Layer0$C$L0
 62
     3
 10
-143.5627450833
 20
164.7549449009
  0
VERTEX
  8
Layer0$C$L0
 62
     3
 10
-143.4943912941
 20
164.8996226943
  0
SEQEND
  8
Layer0$C$L0
 62
     3
  0
POLYLINE
  8
Layer0$C$L0
 62
     3
 66
     1
  0
VERTEX
  8
Layer0$C$L0
 62
     3
 10
-143.4943912941
 20
164.8996226943
  0
VERTEX
  8
Layer0$C$L0
 62
     3
 10
-143.4495648790
 20
165.1267552508
  0
VERTEX
  8
Layer0$C$L0
 62
     3
 10
-143.4393540363
 20
165.3360924974
  0
SEQEND
  8
Layer0$C$L0
 62
     3
  0
POLYLINE
  8
Layer0$C$L0
 62
     3
 66
     1
  0
VERTEX
  8
Layer0$C$L0
 62
     3
 10
-143.4393540363
 20
165.3360924974
  0
VERTEX
  8
Layer0$C$L0
 62
     3
 10
-143.4566355500
 20
165.5912044474
  0
VERTEX
  8
Layer0$C$L0
 62
     3
 10
-143.4943912941
 20
165.7589415369
  0
SEQEND
  8
Layer0$C$L0
 62
     3
  0
POLYLINE
  8
Layer0$C$L0
 62
     3
 66
     1
  0
VERTEX
  8
Layer0$C$L0
 62
     3
 10
-143.4943912941
 20
165.7589415369
  0
VERTEX
  8
Layer0$C$L0
 62
     3
 10
-143.5843414056
 20
165.9233862619
  0
VERTEX
  8
Layer0$C$L0
 62
     3
 10
-143.6661075383
 20
165.9568966349
  0
SEQEND
  8
Layer0$C$L0
 62
     3
  0
LINE
  8
Layer0$C$L0
 62
     3
 10
-143.4444270357
 20
166.8171235284
 11
-143.4444270357
 21
167.0686536300
  0
LINE
  8
Layer0$C$L0
 62
     3
 10
-143.8299749910
 20
166.0791808238
 11
-143.8299749910
 21
166.8171235284
  0
LINE
  8
Layer0$C$L0
 62
     3
 10
-143.3265422041
 20
167.0861696463
 11
-143.3265422041
 21
164.5361696463
  0
LINE
  8
Layer0$C$L0
 62
     3
 10
-143.1842397094
 20
167.0861696463
 11
-143.3265422041
 21
167.0861696463
  0
LINE
  8
Layer0$C$L0
 62
     3
 10
-143.2316738743
 20
164.5361696463
 11
-143.2316738743
 21
167.0861696463
  0
ARC
  8
Layer0$C$L0
 62
     3
 10
-144.3754881236
 20
165.3387951008
 40
0.8283069233
 50
359.8130547537
 51
377.0434277090
  0
ARC
  8
Layer0$C$L0
 62
     3
 10
-143.7301132753
 20
165.5589063073
 40
0.1482970871
 50
8.7903297177
 51
83.5840386729
  0
ARC
  8
Layer0$C$L0
 62
     3
 10
-143.6969760196
 20
165.5586873323
 40
0.1485140357
 50
96.4042635951
 51
171.1371224902
  0
ARC
  8
Layer0$C$L0
 62
     3
 10
-143.0481478845
 20
165.3389046439
 40
0.8317546665
 50
163.0372551454
 51
180.1937162938
  0
ARC
  8
Layer0$C$L0
 62
     3
 10
-142.9899791185
 20
165.3285820172
 40
0.8899503705
 50
179.5164630072
 51
196.4009492573
  0
ARC
  8
Layer0$C$L0
 62
     3
 10
-143.6900753082
 20
165.0997216455
 40
0.1552691952
 50
188.3035746831
 51
261.3073730174
  0
ARC
  8
Layer0$C$L0
 62
     3
 10
-143.7369656207
 20
165.0994552431
 40
0.1549994331
 50
278.6919885478
 51
351.7813818710
  0
ARC
  8
Layer0$C$L0
 62
     3
 10
-144.4298673486
 20
165.3281963477
 40
0.8827170567
 50
343.4869226930
 51
360.5125335298
  0
ARC
  8
Layer0$C$L0
 62
     3
 10
-143.7784939464
 20
165.7270985625
 40
0.2388010636
 50
7.6629414235
 51
74.2170971835
  0
POLYLINE
  8
Layer0$C$L0
 62
     3
 66
     1
  0
VERTEX
  8
Layer0$C$L0
 62
     3
 10
-143.5418254590
 20
165.7589415369
  0
VERTEX
  8
Layer0$C$L0
 62
     3
 10
-143.5005014655
 20
165.5655958670
  0
VERTEX
  8
Layer0$C$L0
 62
     3
 10
-143.4867882012
 20
165.3360924974
  0
SEQEND
  8
Layer0$C$L0
 62
     3
  0
POLYLINE
  8
Layer0$C$L0
 62
     3
 66
     1
  0
VERTEX
  8
Layer0$C$L0
 62
     3
 10
-143.4867882012
 20
165.3360924974
  0
VERTEX
  8
Layer0$C$L0
 62
     3
 10
-143.5000784541
 20
165.0996886821
  0
VERTEX
  8
Layer0$C$L0
 62
     3
 10
-143.5418254590
 20
164.8996226943
  0
SEQEND
  8
Layer0$C$L0
 62
     3
  0
ARC
  8
Layer0$C$L0
 62
     3
 10
-143.7882026534
 20
164.9327288345
 40
0.2485915092
 50
287.4777780883
 51
352.3469057156
  0
ARC
  8
Layer0$C$L0
 62
     3
 10
-143.6390790417
 20
164.9326774577
 40
0.2484830118
 50
187.6445029845
 51
252.5622750058
  0
POLYLINE
  8
Layer0$C$L0
 62
     3
 66
     1
  0
VERTEX
  8
Layer0$C$L0
 62
     3
 10
-143.8853536644
 20
164.8996226943
  0
VERTEX
  8
Layer0$C$L0
 62
     3
 10
-143.9270919770
 20
165.0996397607
  0
VERTEX
  8
Layer0$C$L0
 62
     3
 10
-143.9403909221
 20
165.3360924974
  0
SEQEND
  8
Layer0$C$L0
 62
     3
  0
POLYLINE
  8
Layer0$C$L0
 62
     3
 66
     1
  0
VERTEX
  8
Layer0$C$L0
 62
     3
 10
-143.9403909221
 20
165.3360924974
  0
VERTEX
  8
Layer0$C$L0
 62
     3
 10
-143.9267202135
 20
165.5655724041
  0
VERTEX
  8
Layer0$C$L0
 62
     3
 10
-143.8853536644
 20
165.7589415369
  0
SEQEND
  8
Layer0$C$L0
 62
     3
  0
ARC
  8
Layer0$C$L0
 62
     3
 10
-143.6483119501
 20
165.7267432431
 40
0.2392185287
 50
105.8237164571
 51
172.2646352440
  0
LINE
  8
Layer0$C$L0
 62
     3
 10
-143.4393540363
 20
165.3360924974
 11
-143.4867882012
 21
165.3360924974
  0
LINE
  8
Layer0$C$L0
 62
     3
 10
-143.4943912941
 20
164.8996226943
 11
-143.5418254590
 21
164.8996226943
  0
LINE
  8
Layer0$C$L0
 62
     3
 10
-143.4943912941
 20
165.7589415369
 11
-143.5418254590
 21
165.7589415369
  0
LINE
  8
Layer0$C$L0
 62
     3
 10
-143.4918612006
 20
167.0686536300
 11
-143.4918612006
 21
166.8171235284
  0
LINE
  8
Layer0$C$L0
 62
     3
 10
-143.4444270357
 20
167.0686536300
 11
-143.9385722997
 21
167.0686536300
  0
LINE
  8
Layer0$C$L0
 62
     3
 10
-143.4444270357
 20
166.8171235284
 11
-143.8774091559
 21
166.8171235284
  0
LINE
  8
Layer0$C$L0
 62
     3
 10
-143.8774091559
 20
166.8171235284
 11
-143.8774091559
 21
166.0791808238
  0
LINE
  8
Layer0$C$L0
 62
     3
 10
-143.8299749910
 20
166.0791808238
 11
-143.9385722997
 21
166.0791808238
  0
LINE
  8
Layer0$C$L0
 62
     3
 10
-143.9385722997
 20
166.0791808238
 11
-143.9385722997
 21
167.0686536300
  0
LINE
  8
Layer0$C$L0
 62
     3
 10
-143.4918612006
 20
162.0361696463
 11
-143.4918612006
 21
161.9263613377
  0
LINE
  8
Layer0$C$L0
 62
     3
 10
-143.4918612006
 20
161.9263613377
 11
-143.5278959928
 21
162.0361696463
  0
LINE
  8
Layer0$C$L0
 62
     3
 10
-143.8809152423
 20
162.0361696463
 11
-143.9378065640
 21
161.9181888795
  0
LINE
  8
Layer0$C$L0
 62
     3
 10
-143.9378065640
 20
161.9181888795
 11
-143.9378065640
 21
162.0361696463
  0
LINE
  8
Layer0$C$L0
 62
     3
 10
-143.4444270357
 20
161.9263613377
 11
-143.4918612006
 21
161.9263613377
  0
LINE
  8
Layer0$C$L0
 62
     3
 10
-143.6661075383
 20
165.9568966349
 11
-143.7135417032
 21
165.9568966349
  0
LINE
  8
Layer0$C$L0
 62
     3
 10
-143.6661075383
 20
164.6956139236
 11
-143.7135417032
 21
164.6956139236
  0
POLYLINE
  8
Layer0$C$L0
 62
     3
 66
     1
  0
VERTEX
  8
Layer0$C$L0
 62
     3
 10
-143.7962826175
 20
165.5815689262
  0
VERTEX
  8
Layer0$C$L0
 62
     3
 10
-143.8244285891
 20
165.4553188221
  0
VERTEX
  8
Layer0$C$L0
 62
     3
 10
-143.8324636322
 20
165.3360924974
  0
SEQEND
  8
Layer0$C$L0
 62
     3
  0
POLYLINE
  8
Layer0$C$L0
 62
     3
 66
     1
  0
VERTEX
  8
Layer0$C$L0
 62
     3
 10
-143.6887291762
 20
165.7038735449
  0
VERTEX
  8
Layer0$C$L0
 62
     3
 10
-143.7526886352
 20
165.6658838355
  0
VERTEX
  8
Layer0$C$L0
 62
     3
 10
-143.7962826175
 20
165.5815689262
  0
SEQEND
  8
Layer0$C$L0
 62
     3
  0
POLYLINE
  8
Layer0$C$L0
 62
     3
 66
     1
  0
VERTEX
  8
Layer0$C$L0
 62
     3
 10
-143.7962826175
 20
165.0772979886
  0
VERTEX
  8
Layer0$C$L0
 62
     3
 10
-143.7395209155
 20
164.9756049983
  0
VERTEX
  8
Layer0$C$L0
 62
     3
 10
-143.6886176070
 20
164.9490627626
  0
SEQEND
  8
Layer0$C$L0
 62
     3
  0
POLYLINE
  8
Layer0$C$L0
 62
     3
 66
     1
  0
VERTEX
  8
Layer0$C$L0
 62
     3
 10
-143.8324636322
 20
165.3360924974
  0
VERTEX
  8
Layer0$C$L0
 62
     3
 10
-143.8203658329
 20
165.1795578647
  0
VERTEX
  8
Layer0$C$L0
 62
     3
 10
-143.7962826175
 20
165.0772979886
  0
SEQEND
  8
Layer0$C$L0
 62
     3
  0
LINE
  8
Layer0$C$L0
 62
     3
 10
-143.8903723991
 20
161.9181888795
 11
-143.9378065640
 21
161.9181888795
  0
LINE
  8
Layer0$C$L0
 62
     3
 10
-143.7962826175
 20
165.5815689262
 11
-143.8437167824
 21
165.5815689262
  0
LINE
  8
Layer0$C$L0
 62
     3
 10
-143.7962826175
 20
165.0772979886
 11
-143.8437167824
 21
165.0772979886
  0
LINE
  8
Layer0$C$L0
 62
     3
 10
-143.8324636322
 20
165.3360924974
 11
-143.8798977971
 21
165.3360924974
  0
ARC
  8
Layer0$C$L0
 62
     3
 10
-143.5736716666
 20
175.9361696463
 40
0.5000000000
 50
90.0000000000
 51
180.0000000000
  0
ARC
  8
Layer0$C$L0
 62
     3
 10
-143.0736716666
 20
175.9361696463
 40
0.5000000000
 50
0.0000000000
 51
90.0000000000
  0
LINE
  8
Layer0$C$L0
 62
     3
 10
-142.5736716666
 20
175.7383435593
 11
-142.5736716666
 21
175.9361696463
  0
LINE
  8
Layer0$C$L0
 62
     3
 10
-144.2736716666
 20
176.4361696463
 11
-139.0736716666
 21
176.4361696463
  0
ARC
  8
Layer0$C$L0
 62
     3
 10
-143.5736716666
 20
147.1361696463
 40
0.5000000000
 50
180.0000000000
 51
270.0000000000
  0
ARC
  8
Layer0$C$L0
 62
     3
 10
-143.0736716666
 20
147.1361696463
 40
0.5000000000
 50
270.0000000000
 51
360.0000000000
  0
LINE
  8
Layer0$C$L0
 62
     3
 10
-139.0736716666
 20
146.6361696463
 11
-144.2736716666
 21
146.6361696463
  0
LINE
  8
Layer0$C$L0
 62
     3
 10
-151.7736716666
 20
175.8361696463
 11
-153.2736716666
 21
174.3361696463
  0
LINE
  8
Layer0$C$L0
 62
     3
 10
-151.2736716666
 20
167.2361696463
 11
-151.2736716666
 21
175.8361696463
  0
LINE
  8
Layer0$C$L0
 62
     3
 10
-150.6736716666
 20
167.2361696463
 11
-151.7736716666
 21
167.2361696463
  0
LINE
  8
Layer0$C$L0
 62
     3
 10
-153.2736716666
 20
168.7361696463
 11
-151.7736716666
 21
167.2361696463
  0
LINE
  8
Layer0$C$L0
 62
     3
 10
-153.2736716666
 20
168.7361696463
 11
-153.2736716666
 21
174.3361696463
  0
LINE
  8
Layer0$C$L0
 62
     3
 10
-150.6736716666
 20
175.8361696463
 11
-151.7736716666
 21
175.8361696463
  0
LINE
  8
Layer0$C$L0
 62
     3
 10
-150.6736716666
 20
175.8361696463
 11
-150.6736716666
 21
173.4361696463
  0
LINE
  8
Layer0$C$L0
 62
     3
 10
-147.0736716666
 20
173.4361696463
 11
-151.2736716666
 21
173.4361696463
  0
LINE
  8
Layer0$C$L0
 62
     3
 10
-151.2736716666
 20
169.6361696463
 11
-147.0736716666
 21
169.6361696463
  0
LINE
  8
Layer0$C$L0
 62
     3
 10
-150.6736716666
 20
169.6361696463
 11
-150.6736716666
 21
167.2361696463
  0
LINE
  8
Layer0$C$L0
 62
     3
 10
-151.2736716666
 20
157.2361696463
 11
-151.2736716666
 21
165.8361696463
  0
LINE
  8
Layer0$C$L0
 62
     3
 10
-151.7736716666
 20
165.8361696463
 11
-144.7736716666
 21
165.8361696463
  0
LINE
  8
Layer0$C$L0
 62
     3
 10
-150.6736716666
 20
165.8361696463
 11
-150.6736716666
 21
163.4361696463
  0
LINE
  8
Layer0$C$L0
 62
     3
 10
-147.0736716666
 20
163.4361696463
 11
-151.2736716666
 21
163.4361696463
  0
LINE
  8
Layer0$C$L0
 62
     3
 10
-151.7736716666
 20
165.8361696463
 11
-153.2736716666
 21
164.3361696463
  0
LINE
  8
Layer0$C$L0
 62
     3
 10
-150.6736716666
 20
157.2361696463
 11
-151.7736716666
 21
157.2361696463
  0
LINE
  8
Layer0$C$L0
 62
     3
 10
-153.2736716666
 20
158.7361696463
 11
-151.7736716666
 21
157.2361696463
  0
LINE
  8
Layer0$C$L0
 62
     3
 10
-153.2736716666
 20
158.7361696463
 11
-153.2736716666
 21
164.3361696463
  0
LINE
  8
Layer0$C$L0
 62
     3
 10
-150.6736716666
 20
159.6361696463
 11
-150.6736716666
 21
157.2361696463
  0
LINE
  8
Layer0$C$L0
 62
     3
 10
-151.2736716666
 20
159.6361696463
 11
-147.0736716666
 21
159.6361696463
  0
LINE
  8
Layer0$C$L0
 62
     3
 10
-151.2736716666
 20
147.2361696463
 11
-151.2736716666
 21
155.8361696463
  0
LINE
  8
Layer0$C$L0
 62
     3
 10
-151.7736716666
 20
155.8361696463
 11
-144.7736716666
 21
155.8361696463
  0
LINE
  8
Layer0$C$L0
 62
     3
 10
-150.6736716666
 20
155.8361696463
 11
-150.6736716666
 21
153.4361696463
  0
LINE
  8
Layer0$C$L0
 62
     3
 10
-147.0736716666
 20
153.4361696463
 11
-151.2736716666
 21
153.4361696463
  0
LINE
  8
Layer0$C$L0
 62
     3
 10
-150.6736716666
 20
147.2361696463
 11
-151.7736716666
 21
147.2361696463
  0
LINE
  8
Layer0$C$L0
 62
     3
 10
-153.2736716666
 20
148.7361696463
 11
-151.7736716666
 21
147.2361696463
  0
LINE
  8
Layer0$C$L0
 62
     3
 10
-153.2736716666
 20
148.7361696463
 11
-153.2736716666
 21
154.3361696463
  0
LINE
  8
Layer0$C$L0
 62
     3
 10
-151.7736716666
 20
155.8361696463
 11
-153.2736716666
 21
154.3361696463
  0
LINE
  8
Layer0$C$L0
 62
     3
 10
-150.6736716666
 20
149.6361696463
 11
-150.6736716666
 21
147.2361696463
  0
LINE
  8
Layer0$C$L0
 62
     3
 10
-151.2736716666
 20
149.6361696463
 11
-147.0736716666
 21
149.6361696463
  0
LINE
  8
Layer0$C$L0
 62
     3
 10
-147.0736716666
 20
175.8361696463
 11
-147.0736716666
 21
167.2361696463
  0
LINE
  8
Layer0$C$L0
 62
     3
 10
-150.6736716666
 20
175.8361696463
 11
-144.7736716666
 21
175.8361696463
  0
LINE
  8
Layer0$C$L0
 62
     3
 10
-144.7736716666
 20
167.2361696463
 11
-150.6736716666
 21
167.2361696463
  0
LINE
  8
Layer0$C$L0
 62
     3
 10
-147.0736716666
 20
165.8361696463
 11
-147.0736716666
 21
157.2361696463
  0
LINE
  8
Layer0$C$L0
 62
     3
 10
-144.7736716666
 20
157.2361696463
 11
-150.6736716666
 21
157.2361696463
  0
LINE
  8
Layer0$C$L0
 62
     3
 10
-147.0736716666
 20
155.8361696463
 11
-147.0736716666
 21
147.2361696463
  0
LINE
  8
Layer0$C$L0
 62
     3
 10
-144.7736716666
 20
147.2361696463
 11
-150.6736716666
 21
147.2361696463
  0
POLYLINE
  8
Layer0$C$L0
 62
     3
 66
     1
  0
VERTEX
  8
Layer0$C$L0
 62
     3
 10
-145.3474185954
 20
172.0399324736
  0
VERTEX
  8
Layer0$C$L0
 62
     3
 10
-145.1134976312
 20
171.9936295128
  0
VERTEX
  8
Layer0$C$L0
 62
     3
 10
-144.9592268322
 20
171.8866988829
  0
SEQEND
  8
Layer0$C$L0
 62
     3
  0
POLYLINE
  8
Layer0$C$L0
 62
     3
 66
     1
  0
VERTEX
  8
Layer0$C$L0
 62
     3
 10
-144.9592268322
 20
171.8866988829
  0
VERTEX
  8
Layer0$C$L0
 62
     3
 10
-144.8513290118
 20
171.7166774941
  0
VERTEX
  8
Layer0$C$L0
 62
     3
 10
-144.8264243869
 20
171.5598005560
  0
SEQEND
  8
Layer0$C$L0
 62
     3
  0
POLYLINE
  8
Layer0$C$L0
 62
     3
 66
     1
  0
VERTEX
  8
Layer0$C$L0
 62
     3
 10
-144.8264243869
 20
171.5598005560
  0
VERTEX
  8
Layer0$C$L0
 62
     3
 10
-144.8647425187
 20
171.3451194841
  0
VERTEX
  8
Layer0$C$L0
 62
     3
 10
-144.9592268322
 20
171.2022555109
  0
SEQEND
  8
Layer0$C$L0
 62
     3
  0
POLYLINE
  8
Layer0$C$L0
 62
     3
 66
     1
  0
VERTEX
  8
Layer0$C$L0
 62
     3
 10
-144.9592268322
 20
171.2022555109
  0
VERTEX
  8
Layer0$C$L0
 62
     3
 10
-145.1303016435
 20
171.1009775176
  0
VERTEX
  8
Layer0$C$L0
 62
     3
 10
-145.2861251591
 20
171.0796686383
  0
SEQEND
  8
Layer0$C$L0
 62
     3
  0
POLYLINE
  8
Layer0$C$L0
 62
     3
 66
     1
  0
VERTEX
  8
Layer0$C$L0
 62
     3
 10
-145.2861251591
 20
171.0796686383
  0
VERTEX
  8
Layer0$C$L0
 62
     3
 10
-145.4689772108
 20
171.1066882420
  0
VERTEX
  8
Layer0$C$L0
 62
     3
 10
-145.5925923405
 20
171.1818243655
  0
SEQEND
  8
Layer0$C$L0
 62
     3
  0
POLYLINE
  8
Layer0$C$L0
 62
     3
 66
     1
  0
VERTEX
  8
Layer0$C$L0
 62
     3
 10
-145.5925923405
 20
171.1818243655
  0
VERTEX
  8
Layer0$C$L0
 62
     3
 10
-145.6515390241
 20
171.2609565990
  0
VERTEX
  8
Layer0$C$L0
 62
     3
 10
-145.6743169223
 20
171.3350579562
  0
SEQEND
  8
Layer0$C$L0
 62
     3
  0
POLYLINE
  8
Layer0$C$L0
 62
     3
 66
     1
  0
VERTEX
  8
Layer0$C$L0
 62
     3
 10
-145.6743169223
 20
171.3350579562
  0
VERTEX
  8
Layer0$C$L0
 62
     3
 10
-145.7207489368
 20
171.2312936520
  0
VERTEX
  8
Layer0$C$L0
 62
     3
 10
-145.7764726494
 20
171.1613932201
  0
SEQEND
  8
Layer0$C$L0
 62
     3
  0
POLYLINE
  8
Layer0$C$L0
 62
     3
 66
     1
  0
VERTEX
  8
Layer0$C$L0
 62
     3
 10
-145.7764726494
 20
171.1613932201
  0
VERTEX
  8
Layer0$C$L0
 62
     3
 10
-145.9475474608
 20
171.0601152268
  0
VERTEX
  8
Layer0$C$L0
 62
     3
 10
-146.1033709763
 20
171.0388063475
  0
SEQEND
  8
Layer0$C$L0
 62
     3
  0
POLYLINE
  8
Layer0$C$L0
 62
     3
 66
     1
  0
VERTEX
  8
Layer0$C$L0
 62
     3
 10
-146.1033709763
 20
171.0388063475
  0
VERTEX
  8
Layer0$C$L0
 62
     3
 10
-146.3247042741
 20
171.0817758474
  0
VERTEX
  8
Layer0$C$L0
 62
     3
 10
-146.4711315941
 20
171.1818243655
  0
SEQEND
  8
Layer0$C$L0
 62
     3
  0
POLYLINE
  8
Layer0$C$L0
 62
     3
 66
     1
  0
VERTEX
  8
Layer0$C$L0
 62
     3
 10
-146.4711315941
 20
171.1818243655
  0
VERTEX
  8
Layer0$C$L0
 62
     3
 10
-146.5905458140
 20
171.3909389134
  0
VERTEX
  8
Layer0$C$L0
 62
     3
 10
-146.6141496121
 20
171.5802317014
  0
SEQEND
  8
Layer0$C$L0
 62
     3
  0
POLYLINE
  8
Layer0$C$L0
 62
     3
 66
     1
  0
VERTEX
  8
Layer0$C$L0
 62
     3
 10
-146.6141496121
 20
171.5802317014
  0
VERTEX
  8
Layer0$C$L0
 62
     3
 10
-146.5704368147
 20
171.7958320076
  0
VERTEX
  8
Layer0$C$L0
 62
     3
 10
-146.4711315941
 20
171.9377767464
  0
SEQEND
  8
Layer0$C$L0
 62
     3
  0
POLYLINE
  8
Layer0$C$L0
 62
     3
 66
     1
  0
VERTEX
  8
Layer0$C$L0
 62
     3
 10
-146.4711315941
 20
171.9377767464
  0
VERTEX
  8
Layer0$C$L0
 62
     3
 10
-146.2974346224
 20
172.0575721513
  0
VERTEX
  8
Layer0$C$L0
 62
     3
 10
-146.1340176945
 20
172.0876051463
  0
SEQEND
  8
Layer0$C$L0
 62
     3
  0
LINE
  8
Layer0$C$L0
 62
     3
 10
-146.1340176945
 20
172.0876051463
 11
-146.0522931127
 21
172.0876051463
  0
LINE
  8
Layer0$C$L0
 62
     3
 10
-146.0522931127
 20
172.0876051463
 11
-146.0522931127
 21
171.8458365920
  0
LINE
  8
Layer0$C$L0
 62
     3
 10
-146.0522931127
 20
171.8458365920
 11
-146.1238021218
 21
171.8458365920
  0
POLYLINE
  8
Layer0$C$L0
 62
     3
 66
     1
  0
VERTEX
  8
Layer0$C$L0
 62
     3
 10
-146.1238021218
 20
171.8458365920
  0
VERTEX
  8
Layer0$C$L0
 62
     3
 10
-146.2594459988
 20
171.8171120087
  0
VERTEX
  8
Layer0$C$L0
 62
     3
 10
-146.3485447215
 20
171.7538964376
  0
SEQEND
  8
Layer0$C$L0
 62
     3
  0
POLYLINE
  8
Layer0$C$L0
 62
     3
 66
     1
  0
VERTEX
  8
Layer0$C$L0
 62
     3
 10
-146.3485447215
 20
171.7538964376
  0
VERTEX
  8
Layer0$C$L0
 62
     3
 10
-146.4065136617
 20
171.6636802300
  0
VERTEX
  8
Layer0$C$L0
 62
     3
 10
-146.4200537305
 20
171.5802317014
  0
SEQEND
  8
Layer0$C$L0
 62
     3
  0
POLYLINE
  8
Layer0$C$L0
 62
     3
 66
     1
  0
VERTEX
  8
Layer0$C$L0
 62
     3
 10
-146.4200537305
 20
171.5802317014
  0
VERTEX
  8
Layer0$C$L0
 62
     3
 10
-146.3960103519
 20
171.4512106542
  0
VERTEX
  8
Layer0$C$L0
 62
     3
 10
-146.3383291488
 20
171.3657046744
  0
SEQEND
  8
Layer0$C$L0
 62
     3
  0
ARC
  8
Layer0$C$L0
 62
     3
 10
-146.1139498365
 20
171.6269819253
 40
0.3444007515
 50
229.3447214415
 51
275.1659353084
  0
POLYLINE
  8
Layer0$C$L0
 62
     3
 66
     1
  0
VERTEX
  8
Layer0$C$L0
 62
     3
 10
-146.0829398309
 20
171.2839800926
  0
VERTEX
  8
Layer0$C$L0
 62
     3
 10
-145.9481528367
 20
171.3071432547
  0
VERTEX
  8
Layer0$C$L0
 62
     3
 10
-145.8581972311
 20
171.3657046744
  0
SEQEND
  8
Layer0$C$L0
 62
     3
  0
POLYLINE
  8
Layer0$C$L0
 62
     3
 66
     1
  0
VERTEX
  8
Layer0$C$L0
 62
     3
 10
-145.8581972311
 20
171.3657046744
  0
VERTEX
  8
Layer0$C$L0
 62
     3
 10
-145.7934990068
 20
171.4607718061
  0
VERTEX
  8
Layer0$C$L0
 62
     3
 10
-145.7764726494
 20
171.5495849832
  0
SEQEND
  8
Layer0$C$L0
 62
     3
  0
LINE
  8
Layer0$C$L0
 62
     3
 10
-145.7764726494
 20
171.5495849832
 11
-145.7764726494
 21
171.6313095650
  0
LINE
  8
Layer0$C$L0
 62
     3
 10
-145.7764726494
 20
171.6313095650
 11
-145.6028079133
 21
171.6313095650
  0
LINE
  8
Layer0$C$L0
 62
     3
 10
-145.6028079133
 20
171.6313095650
 11
-145.6028079133
 21
171.5700161287
  0
POLYLINE
  8
Layer0$C$L0
 62
     3
 66
     1
  0
VERTEX
  8
Layer0$C$L0
 62
     3
 10
-145.6028079133
 20
171.5700161287
  0
VERTEX
  8
Layer0$C$L0
 62
     3
 10
-145.5740841931
 20
171.4646100265
  0
VERTEX
  8
Layer0$C$L0
 62
     3
 10
-145.5210833315
 20
171.3963513925
  0
SEQEND
  8
Layer0$C$L0
 62
     3
  0
POLYLINE
  8
Layer0$C$L0
 62
     3
 66
     1
  0
VERTEX
  8
Layer0$C$L0
 62
     3
 10
-145.5210833315
 20
171.3963513925
  0
VERTEX
  8
Layer0$C$L0
 62
     3
 10
-145.3974755917
 20
171.3276200385
  0
VERTEX
  8
Layer0$C$L0
 62
     3
 10
-145.2861251591
 20
171.3146268108
  0
SEQEND
  8
Layer0$C$L0
 62
     3
  0
POLYLINE
  8
Layer0$C$L0
 62
     3
 66
     1
  0
VERTEX
  8
Layer0$C$L0
 62
     3
 10
-145.2861251591
 20
171.3146268108
  0
VERTEX
  8
Layer0$C$L0
 62
     3
 10
-145.1570956001
 20
171.3386547814
  0
VERTEX
  8
Layer0$C$L0
 62
     3
 10
-145.0715981320
 20
171.3963513925
  0
SEQEND
  8
Layer0$C$L0
 62
     3
  0
POLYLINE
  8
Layer0$C$L0
 62
     3
 66
     1
  0
VERTEX
  8
Layer0$C$L0
 62
     3
 10
-145.0715981320
 20
171.3963513925
  0
VERTEX
  8
Layer0$C$L0
 62
     3
 10
-145.0210019984
 20
171.4819746807
  0
VERTEX
  8
Layer0$C$L0
 62
     3
 10
-145.0103046958
 20
171.5598005560
  0
SEQEND
  8
Layer0$C$L0
 62
     3
  0
POLYLINE
  8
Layer0$C$L0
 62
     3
 66
     1
  0
VERTEX
  8
Layer0$C$L0
 62
     3
 10
-145.0103046958
 20
171.5598005560
  0
VERTEX
  8
Layer0$C$L0
 62
     3
 10
-145.0337748452
 20
171.6588555144
  0
VERTEX
  8
Layer0$C$L0
 62
     3
 10
-145.0818137048
 20
171.7232497194
  0
SEQEND
  8
Layer0$C$L0
 62
     3
  0
POLYLINE
  8
Layer0$C$L0
 62
     3
 66
     1
  0
VERTEX
  8
Layer0$C$L0
 62
     3
 10
-145.0818137048
 20
171.7232497194
  0
VERTEX
  8
Layer0$C$L0
 62
     3
 10
-145.2225719284
 20
171.7971184482
  0
VERTEX
  8
Layer0$C$L0
 62
     3
 10
-145.3474185954
 20
171.8151898738
  0
SEQEND
  8
Layer0$C$L0
 62
     3
  0
LINE
  8
Layer0$C$L0
 62
     3
 10
-145.3474185954
 20
171.8151898738
 11
-145.3474185954
 21
172.0399324736
  0
POLYLINE
  8
Layer0$C$L0
 62
     3
 66
     1
  0
VERTEX
  8
Layer0$C$L0
 62
     3
 10
-145.2365850144
 20
162.0361696463
  0
VERTEX
  8
Layer0$C$L0
 62
     3
 10
-145.1710064467
 20
162.0261560813
  0
VERTEX
  8
Layer0$C$L0
 62
     3
 10
-144.9777581672
 20
161.9065128143
  0
SEQEND
  8
Layer0$C$L0
 62
     3
  0
POLYLINE
  8
Layer0$C$L0
 62
     3
 66
     1
  0
VERTEX
  8
Layer0$C$L0
 62
     3
 10
-144.9777581672
 20
161.9065128143
  0
VERTEX
  8
Layer0$C$L0
 62
     3
 10
-144.8707847612
 20
161.7421530457
  0
VERTEX
  8
Layer0$C$L0
 62
     3
 10
-144.8449557219
 20
161.5898300601
  0
SEQEND
  8
Layer0$C$L0
 62
     3
  0
POLYLINE
  8
Layer0$C$L0
 62
     3
 66
     1
  0
VERTEX
  8
Layer0$C$L0
 62
     3
 10
-144.8449557219
 20
161.5898300601
  0
VERTEX
  8
Layer0$C$L0
 62
     3
 10
-144.8832738538
 20
161.3751489882
  0
VERTEX
  8
Layer0$C$L0
 62
     3
 10
-144.9777581672
 20
161.2322850151
  0
SEQEND
  8
Layer0$C$L0
 62
     3
  0
POLYLINE
  8
Layer0$C$L0
 62
     3
 66
     1
  0
VERTEX
  8
Layer0$C$L0
 62
     3
 10
-144.9777581672
 20
161.2322850151
  0
VERTEX
  8
Layer0$C$L0
 62
     3
 10
-145.1478136555
 20
161.1244616360
  0
VERTEX
  8
Layer0$C$L0
 62
     3
 10
-145.3046564941
 20
161.0994825698
  0
SEQEND
  8
Layer0$C$L0
 62
     3
  0
POLYLINE
  8
Layer0$C$L0
 62
     3
 66
     1
  0
VERTEX
  8
Layer0$C$L0
 62
     3
 10
-145.3046564941
 20
161.0994825698
  0
VERTEX
  8
Layer0$C$L0
 62
     3
 10
-145.5592558751
 20
161.1470309110
  0
VERTEX
  8
Layer0$C$L0
 62
     3
 10
-145.7337105482
 20
161.2527161605
  0
SEQEND
  8
Layer0$C$L0
 62
     3
  0
POLYLINE
  8
Layer0$C$L0
 62
     3
 66
     1
  0
VERTEX
  8
Layer0$C$L0
 62
     3
 10
-145.7337105482
 20
161.2527161605
  0
VERTEX
  8
Layer0$C$L0
 62
     3
 10
-145.9247381948
 20
161.4160637797
  0
VERTEX
  8
Layer0$C$L0
 62
     3
 10
-146.0708244478
 20
161.5489677693
  0
SEQEND
  8
Layer0$C$L0
 62
     3
  0
LINE
  8
Layer0$C$L0
 62
     3
 10
-146.0708244478
 20
161.5489677693
 11
-146.2547047567
 21
161.7124169327
  0
POLYLINE
  8
Layer0$C$L0
 62
     3
 66
     1
  0
VERTEX
  8
Layer0$C$L0
 62
     3
 10
-146.2547047567
 20
161.7124169327
  0
VERTEX
  8
Layer0$C$L0
 62
     3
 10
-146.3437413784
 20
161.7844010803
  0
VERTEX
  8
Layer0$C$L0
 62
     3
 10
-146.4181539201
 20
161.8350038053
  0
SEQEND
  8
Layer0$C$L0
 62
     3
  0
LINE
  8
Layer0$C$L0
 62
     3
 10
-146.4181539201
 20
161.8350038053
 11
-146.4181539201
 21
161.0688358516
  0
LINE
  8
Layer0$C$L0
 62
     3
 10
-146.4181539201
 20
161.0688358516
 11
-146.6114930926
 21
161.0688358516
  0
LINE
  8
Layer0$C$L0
 62
     3
 10
-146.6114930926
 20
161.0688358516
 11
-146.6114930926
 21
162.1108242686
  0
LINE
  8
Layer0$C$L0
 62
     3
 10
-146.6114930926
 20
162.1108242686
 11
-146.4385850656
 21
162.1108242686
  0
POLYLINE
  8
Layer0$C$L0
 62
     3
 66
     1
  0
VERTEX
  8
Layer0$C$L0
 62
     3
 10
-146.4385850656
 20
162.1108242686
  0
VERTEX
  8
Layer0$C$L0
 62
     3
 10
-146.2703211062
 20
162.0274171850
  0
VERTEX
  8
Layer0$C$L0
 62
     3
 10
-146.1525490295
 20
161.9371595325
  0
SEQEND
  8
Layer0$C$L0
 62
     3
  0
POLYLINE
  8
Layer0$C$L0
 62
     3
 66
     1
  0
VERTEX
  8
Layer0$C$L0
 62
     3
 10
-146.1525490295
 20
161.9371595325
  0
VERTEX
  8
Layer0$C$L0
 62
     3
 10
-145.8961366859
 20
161.7014882116
  0
VERTEX
  8
Layer0$C$L0
 62
     3
 10
-145.6928482573
 20
161.5183210511
  0
SEQEND
  8
Layer0$C$L0
 62
     3
  0
POLYLINE
  8
Layer0$C$L0
 62
     3
 66
     1
  0
VERTEX
  8
Layer0$C$L0
 62
     3
 10
-145.6928482573
 20
161.5183210511
  0
VERTEX
  8
Layer0$C$L0
 62
     3
 10
-145.4914246535
 20
161.3827725758
  0
VERTEX
  8
Layer0$C$L0
 62
     3
 10
-145.3046564941
 20
161.3446563150
  0
SEQEND
  8
Layer0$C$L0
 62
     3
  0
POLYLINE
  8
Layer0$C$L0
 62
     3
 66
     1
  0
VERTEX
  8
Layer0$C$L0
 62
     3
 10
-145.3046564941
 20
161.3446563150
  0
VERTEX
  8
Layer0$C$L0
 62
     3
 10
-145.1814414221
 20
161.3696224796
  0
VERTEX
  8
Layer0$C$L0
 62
     3
 10
-145.1003450398
 20
161.4263808967
  0
SEQEND
  8
Layer0$C$L0
 62
     3
  0
POLYLINE
  8
Layer0$C$L0
 62
     3
 66
     1
  0
VERTEX
  8
Layer0$C$L0
 62
     3
 10
-145.1003450398
 20
161.4263808967
  0
VERTEX
  8
Layer0$C$L0
 62
     3
 10
-145.0504820776
 20
161.5062475750
  0
VERTEX
  8
Layer0$C$L0
 62
     3
 10
-145.0390516035
 20
161.5796144874
  0
SEQEND
  8
Layer0$C$L0
 62
     3
  0
POLYLINE
  8
Layer0$C$L0
 62
     3
 66
     1
  0
VERTEX
  8
Layer0$C$L0
 62
     3
 10
-145.0390516035
 20
161.5796144874
  0
VERTEX
  8
Layer0$C$L0
 62
     3
 10
-145.0590109676
 20
161.6661328814
  0
VERTEX
  8
Layer0$C$L0
 62
     3
 10
-145.1003450398
 20
161.7226325054
  0
SEQEND
  8
Layer0$C$L0
 62
     3
  0
ARC
  8
Layer0$C$L0
 62
     3
 10
-145.4133899782
 20
161.3515877413
 40
0.4854599370
 50
49.8461726223
 51
95.2594505311
  0
LINE
  8
Layer0$C$L0
 62
     3
 10
-145.4578900849
 20
161.8350038053
 11
-145.4578900849
 21
162.0361696463
  0
POLYLINE
  8
Layer0$C$L0
 62
     3
 66
     1
  0
VERTEX
  8
Layer0$C$L0
 62
     3
 10
-145.0710835738
 20
151.7098540242
  0
VERTEX
  8
Layer0$C$L0
 62
     3
 10
-144.9654589565
 20
151.6341029923
  0
VERTEX
  8
Layer0$C$L0
 62
     3
 10
-144.8667721195
 20
151.6076982971
  0
SEQEND
  8
Layer0$C$L0
 62
     3
  0
LINE
  8
Layer0$C$L0
 62
     3
 10
-144.8667721195
 20
151.6076982971
 11
-144.8667721195
 21
151.4851114245
  0
LINE
  8
Layer0$C$L0
 62
     3
 10
-144.8667721195
 20
151.4851114245
 11
-146.6340661993
 21
151.4851114245
  0
LINE
  8
Layer0$C$L0
 62
     3
 10
-146.6340661993
 20
151.4851114245
 11
-146.6340661993
 21
151.7268799788
  0
LINE
  8
Layer0$C$L0
 62
     3
 10
-146.6340661993
 20
151.7268799788
 11
-145.2735032554
 21
151.7268799788
  0
LINE
  8
Layer0$C$L0
 62
     3
 10
-145.2735032554
 20
151.7268799788
 11
-145.2735032554
 21
152.0265367784
  0
LINE
  8
Layer0$C$L0
 62
     3
 10
-145.2735032554
 20
152.0265367784
 11
-145.1528081556
 21
152.0265367784
  0
LINE
  8
Layer0$C$L0
 62
     3
 10
-145.1528081556
 20
152.0265367784
 11
-145.1528081556
 21
151.9345966240
  0
POLYLINE
  8
Layer0$C$L0
 62
     3
 66
     1
  0
VERTEX
  8
Layer0$C$L0
 62
     3
 10
-145.1528081556
 20
151.9345966240
  0
VERTEX
  8
Layer0$C$L0
 62
     3
 10
-145.1296330656
 20
151.7998134450
  0
VERTEX
  8
Layer0$C$L0
 62
     3
 10
-145.0710835738
 20
151.7098540242
  0
SEQEND
  8
Layer0$C$L0
 62
     3
  0
LINE
  8
Layer0$C$L0
 62
     3
 10
-144.2736716666
 20
146.6361696463
 11
-144.2736716666
 21
146.7361696463
  0
ARC
  8
Layer0$C$L0
 62
     3
 10
-144.7736716666
 20
146.7361696463
 40
0.5000000000
 50
0.0000000000
 51
90.0000000000
  0
ARC
  8
Layer0$C$L0
 62
     3
 10
-144.7736716666
 20
156.3361696463
 40
0.5000000000
 50
270.0000000000
 51
360.0000000000
  0
LINE
  8
Layer0$C$L0
 62
     3
 10
-144.2736716666
 20
156.3361696463
 11
-144.2736716666
 21
156.7361696463
  0
ARC
  8
Layer0$C$L0
 62
     3
 10
-144.7736716666
 20
156.7361696463
 40
0.5000000000
 50
0.0000000000
 51
90.0000000000
  0
ARC
  8
Layer0$C$L0
 62
     3
 10
-144.7736716666
 20
166.3361696463
 40
0.5000000000
 50
270.0000000000
 51
360.0000000000
  0
LINE
  8
Layer0$C$L0
 62
     3
 10
-144.2736716666
 20
166.3361696463
 11
-144.2736716666
 21
166.7361696463
  0
ARC
  8
Layer0$C$L0
 62
     3
 10
-144.7736716666
 20
166.7361696463
 40
0.5000000000
 50
0.0000000000
 51
90.0000000000
  0
ARC
  8
Layer0$C$L0
 62
     3
 10
-144.7736716666
 20
176.3361696463
 40
0.5000000000
 50
270.0000000000
 51
360.0000000000
  0
LINE
  8
Layer0$C$L0
 62
     3
 10
-144.2736716666
 20
176.3361696463
 11
-144.2736716666
 21
176.4361696463
  0
ARC
  8
Layer0$C$L0
 62
     3
 10
-139.0736716666
 20
175.9361696463
 40
0.5000000000
 50
0.0000000000
 51
90.0000000000
  0
LINE
  8
Layer0$C$L0
 62
     3
 10
-138.5736716666
 20
175.9361696463
 11
-138.5736716666
 21
175.7168644274
  0
LINE
  8
Layer0$C$L0
 62
     3
 10
-138.5736716666
 20
155.5361696463
 11
-138.5736716666
 21
147.1361696463
  0
ARC
  8
Layer0$C$L0
 62
     3
 10
-139.0736716666
 20
147.1361696463
 40
0.5000000000
 50
270.0000000000
 51
360.0000000000
  0
LINE
  8
Layer0$C$L0
 62
     3
 10
-149.5736716666
 20
176.4361696463
 11
-144.2736716666
 21
176.4361696463
  0
LINE
  8
Layer0$C$L0
 62
     3
 10
-144.2736716666
 20
146.6361696463
 11
-149.5736716666
 21
146.6361696463
  0
LINE
  8
Layer0$C$L0
 62
     3
 10
-147.0736716666
 20
173.3361696463
 11
-149.5736716666
 21
173.3361696463
  0
LINE
  8
Layer0$C$L0
 62
     3
 10
-147.0736716666
 20
163.3361696463
 11
-149.5736716666
 21
163.3361696463
  0
LINE
  8
Layer0$C$L0
 62
     3
 10
-147.0736716666
 20
169.7361696463
 11
-149.5736716666
 21
169.7361696463
  0
LINE
  8
Layer0$C$L0
 62
     3
 10
-147.0736716666
 20
153.3361696463
 11
-149.5736716666
 21
153.3361696463
  0
LINE
  8
Layer0$C$L0
 62
     3
 10
-147.0736716666
 20
159.7361696463
 11
-149.5736716666
 21
159.7361696463
  0
LINE
  8
Layer0$C$L0
 62
     3
 10
-147.0736716666
 20
149.7361696463
 11
-149.5736716666
 21
149.7361696463
  0
LINE
  8
Layer0$C$L0
 62
     3
 10
-131.9736716666
 20
175.2861696463
 11
-131.9736716666
 21
147.7861696463
  0
LINE
  8
Layer0$C$L0
 62
     3
 10
-132.7736716666
 20
175.4361696463
 11
-132.7736716666
 21
147.6361696463
  0
LINE
  8
Layer0$C$L0
 62
     3
 10
-135.2736716666
 20
150.5307758833
 11
-137.2736716666
 21
150.5307758833
  0
LINE
  8
Layer0$C$L0
 62
     3
 10
-135.2736716666
 20
150.5307758833
 11
-135.2736716666
 21
153.0455095941
  0
LINE
  8
Layer0$C$L0
 62
     3
 10
-137.4723229242
 20
153.0455095941
 11
-135.2736716666
 21
153.0455095941
  0
LINE
  8
Layer0$C$L0
 62
     3
 10
-137.2736716666
 20
155.5779120768
 11
-137.2736716666
 21
153.0455095941
  0
LINE
  8
Layer0$C$L0
 62
     3
 10
-133.5736716666
 20
156.3428079670
 11
-136.9736716666
 21
156.3428079670
  0
LINE
  8
Layer0$C$L0
 62
     3
 10
-133.5736716666
 20
156.3428079670
 11
-133.5736716666
 21
159.6049409041
  0
LINE
  8
Layer0$C$L0
 62
     3
 10
-136.9736716666
 20
159.6049409041
 11
-133.5736716666
 21
159.6049409041
  0
LINE
  8
Layer0$C$L0
 62
     3
 10
-133.5736716666
 20
163.4852715884
 11
-136.1245697244
 21
163.4852715884
  0
LINE
  8
Layer0$C$L0
 62
     3
 10
-133.5736716666
 20
163.4852715884
 11
-133.5736716666
 21
166.7462696754
  0
LINE
  8
Layer0$C$L0
 62
     3
 10
-137.2736716666
 20
166.7462696754
 11
-136.9736716666
 21
166.7462696754
  0
LINE
  8
Layer0$C$L0
 62
     3
 10
-135.4736716666
 20
166.7462696754
 11
-133.5736716666
 21
166.7462696754
  0
LINE
  8
Layer0$C$L0
 62
     3
 10
-137.2736716666
 20
169.3818965060
 11
-137.2736716666
 21
166.7462696754
  0
LINE
  8
Layer0$C$L0
 62
     3
 10
-135.2736716666
 20
170.0268296984
 11
-135.4736716666
 21
170.0268296984
  0
LINE
  8
Layer0$C$L0
 62
     3
 10
-135.2736716666
 20
170.0268296984
 11
-135.2736716666
 21
172.5415634093
  0
LINE
  8
Layer0$C$L0
 62
     3
 10
-135.4736716666
 20
172.5415634093
 11
-135.2736716666
 21
172.5415634093
  0
LINE
  8
Layer0$C$L0
 62
     3
 10
-133.5736716666
 20
174.4295398212
 11
-135.4736716666
 21
174.4295398212
  0
LINE
  8
Layer0$C$L0
 62
     3
 10
-133.5736716666
 20
174.4295398212
 11
-133.5736716666
 21
175.3013560070
  0
LINE
  8
Layer0$C$L0
 62
     3
 10
-135.4808621973
 20
175.3013560070
 11
-133.5736716666
 21
175.3013560070
  0
LINE
  8
Layer0$C$L0
 62
     3
 10
-137.2736716666
 20
147.7735026947
 11
-137.2736716666
 21
147.6361696463
  0
LINE
  8
Layer0$C$L0
 62
     3
 10
-133.5736716666
 20
147.7735026947
 11
-137.2736716666
 21
147.7735026947
  0
LINE
  8
Layer0$C$L0
 62
     3
 10
-133.5736716666
 20
147.7735026947
 11
-133.5736716666
 21
148.6495541990
  0
LINE
  8
Layer0$C$L0
 62
     3
 10
-137.2736716666
 20
148.6495541990
 11
-133.5736716666
 21
148.6495541990
  0
LINE
  8
Layer0$C$L0
 62
     3
 10
-137.2736716666
 20
150.5307758833
 11
-137.2736716666
 21
148.6495541990
  0
LINE
  8
Layer0$C$L0
 62
     3
 10
-133.5736716666
 20
166.4314358792
 11
-135.4736716666
 21
166.4314358792
  0
LINE
  8
Layer0$C$L0
 62
     3
 10
-136.9736716666
 20
166.4314358792
 11
-137.7736716666
 21
166.4314358792
  0
LINE
  8
Layer0$C$L0
 62
     3
 10
-137.7736716666
 20
169.3818965060
 11
-137.7736716666
 21
164.1361696463
  0
LINE
  8
Layer0$C$L0
 62
     3
 10
-133.5736716666
 20
156.6409034134
 11
-136.9736716666
 21
156.6409034134
  0
LINE
  8
Layer0$C$L0
 62
     3
 10
-133.5736716666
 20
159.4554520387
 11
-136.9736716666
 21
159.4554520387
  0
LINE
  8
Layer0$C$L0
 62
     3
 10
-136.0040989191
 20
163.6120928969
 11
-133.5736716666
 21
163.6120928969
  0
LINE
  8
Layer0$C$L0
 62
     3
 10
-137.4540739454
 20
166.5146647327
 11
-137.2736716666
 21
166.7462696754
  0
LINE
  8
Layer0$C$L0
 62
     3
 10
-137.4540739454
 20
166.5146647327
 11
-137.7736716666
 21
166.4314358792
  0
LINE
  8
Layer0$C$L0
 62
     3
 10
-137.4723229242
 20
153.0455095941
 11
-137.7736716666
 21
153.2600966351
  0
LINE
  8
Layer0$C$L0
 62
     3
 10
-137.7736716666
 20
153.2600966351
 11
-137.7736716666
 21
155.5521457431
  0
LINE
  8
Layer0$C$L0
 62
     3
 10
-133.5736716666
 20
166.5146647327
 11
-135.4736716666
 21
166.5146647327
  0
LINE
  8
Layer0$C$L0
 62
     3
 10
-136.9736716666
 20
166.5146647327
 11
-137.4540739454
 21
166.5146647327
  0
LINE
  8
Layer0$C$L0
 62
     3
 10
-136.9736716666
 20
156.5624689168
 11
-133.5736716666
 21
156.5624689168
  0
LINE
  8
Layer0$C$L0
 62
     3
 10
-135.2736716666
 20
171.1484013015
 11
-135.4736716666
 21
171.1484013015
  0
LINE
  8
Layer0$C$L0
 62
     3
 10
-135.2736716666
 20
151.9239379910
 11
-137.5736716666
 21
151.9239379910
  0
POLYLINE
  8
Layer0$C$L0
 62
     3
 66
     1
  0
VERTEX
  8
Layer0$C$L0
 62
     3
 10
-137.5736716666
 20
151.9239379910
  0
VERTEX
  8
Layer0$C$L0
 62
     3
 10
-137.6394353345
 20
151.9318717127
  0
VERTEX
  8
Layer0$C$L0
 62
     3
 10
-137.6977816260
 20
151.9547327660
  0
VERTEX
  8
Layer0$C$L0
 62
     3
 10
-137.7424160076
 20
151.9900319485
  0
VERTEX
  8
Layer0$C$L0
 62
     3
 10
-137.7684059564
 20
152.0341014296
  0
VERTEX
  8
Layer0$C$L0
 62
     3
 10
-137.7736716666
 20
152.0666335306
  0
SEQEND
  8
Layer0$C$L0
 62
     3
  0
LINE
  8
Layer0$C$L0
 62
     3
 10
-137.7736716666
 20
148.1361696463
 11
-137.7736716666
 21
153.2538822675
  0
LINE
  8
Layer0$C$L0
 62
     3
 10
-135.2736716666
 20
172.2895713982
 11
-135.4736716666
 21
172.2895713982
  0
LINE
  8
Layer0$C$L0
 62
     3
 10
-137.2736716666
 20
150.5307758833
 11
-137.4723229242
 21
150.7827678943
  0
LINE
  8
Layer0$C$L0
 62
     3
 10
-137.4723229242
 20
150.7827678943
 11
-135.2736716666
 21
150.7827678943
  0
LINE
  8
Layer0$C$L0
 62
     3
 10
-137.7736716666
 20
150.9973549353
 11
-137.4723229242
 21
150.7827678943
  0
LINE
  8
Layer0$C$L0
 62
     3
 10
-137.4540739454
 20
148.7517279962
 11
-137.2736716666
 21
148.6495541990
  0
LINE
  8
Layer0$C$L0
 62
     3
 10
-137.4540739454
 20
148.7517279962
 11
-137.7736716666
 21
149.0623423062
  0
LINE
  8
Layer0$C$L0
 62
     3
 10
-133.5736716666
 20
174.7864541216
 11
-135.4736716666
 21
174.7864541216
  0
LINE
  8
Layer0$C$L0
 62
     3
 10
-133.5736716666
 20
148.2858851709
 11
-137.7736716666
 21
148.2858851709
  0
LINE
  8
Layer0$C$L0
 62
     3
 10
-137.7736716666
 20
148.2858851709
 11
-137.4724867213
 21
147.9931636445
  0
LINE
  8
Layer0$C$L0
 62
     3
 10
-137.2736716666
 20
147.7735026947
 11
-137.4724867213
 21
147.9931636445
  0
LINE
  8
Layer0$C$L0
 62
     3
 10
-133.5736716666
 20
175.0970684317
 11
-135.4736716666
 21
175.0970684317
  0
LINE
  8
Layer0$C$L0
 62
     3
 10
-137.4724867213
 20
147.9931636445
 11
-133.5736716666
 21
147.9931636445
  0
LINE
  8
Layer0$C$L0
 62
     3
 10
-131.4736716666
 20
175.5361696463
 11
-131.4736716666
 21
147.5361696463
  0
LINE
  8
Layer0$C$L0
 62
     3
 10
-129.4736716666
 20
172.5361696463
 11
-129.4736716666
 21
150.5361696463
  0
LINE
  8
Layer0$C$L0
 62
     3
 10
-132.7736716666
 20
163.0361696463
 11
-132.2736716666
 21
163.0361696463
  0
LINE
  8
Layer0$C$L0
 62
     3
 10
-132.2736716666
 20
163.0361696463
 11
-132.2736716666
 21
160.0361696463
  0
LINE
  8
Layer0$C$L0
 62
     3
 10
-132.2736716666
 20
160.0361696463
 11
-132.7736716666
 21
160.0361696463
  0
LINE
  8
Layer0$C$L0
 62
     3
 10
-132.7736716666
 20
158.9846994818
 11
-132.0736716666
 21
158.9846994818
  0
ARC
  8
Layer0$C$L0
 62
     3
 10
-132.0882585833
 20
159.1094186993
 40
0.1255693488
 50
276.6708954630
 51
335.8586024412
  0
ARC
  8
Layer0$C$L0
 62
     3
 10
-132.0871349905
 20
163.9646057258
 40
0.1237685224
 50
23.5462168577
 51
83.7551078818
  0
LINE
  8
Layer0$C$L0
 62
     3
 10
-132.0736716666
 20
164.0876398107
 11
-132.7736716666
 21
164.0876398107
  0
LINE
  8
Layer0$C$L0
 62
     3
 10
-140.2736716666
 20
163.1361696463
 11
-140.2736716666
 21
169.3818965060
  0
LINE
  8
Layer0$C$L0
 62
     3
 10
-139.9561290185
 20
169.3818965060
 11
-139.9561290185
 21
163.1361696463
  0
LINE
  8
Layer0$C$L0
 62
     3
 10
-138.3730824471
 20
163.1361696463
 11
-140.2736716666
 21
163.1361696463
  0
LINE
  8
Layer0$C$L0
 62
     3
 10
-139.9561290185
 20
159.9361696463
 11
-139.9561290185
 21
157.5361696463
  0
LINE
  8
Layer0$C$L0
 62
     3
 10
-138.4736716666
 20
159.9361696463
 11
-140.2736716666
 21
159.9361696463
  0
LINE
  8
Layer0$C$L0
 62
     3
 10
-140.2736716666
 20
157.5361696463
 11
-140.2736716666
 21
159.9361696463
  0
LINE
  8
Layer0$C$L0
 62
     3
 10
-140.2736716666
 20
165.8361696463
 11
-140.3736716666
 21
165.8361696463
  0
ENDSEC
  0
EOF
