  0
SECTION
  2
HEADER
  9
$ACADVER
  1
AC1015
  9
$ACADMAINTVER
 70
    20
  9
$DWGCODEPAGE
  3
ANSI_1252
  9
$INSBASE
 10
0.0
 20
0.0
 30
0.0
  9
$EXTMIN
 10
-192.2562861666083
 20
-28.29365539550781
 30
0.0
  9
$EXTMAX
 10
42.2427635192871
 20
72.04081726074218
 30
0.0
  9
$LIMMIN
 10
-0.5
 20
-0.5
  9
$LIMMAX
 10
5.0
 20
5.0
  9
$ORTHOMODE
 70
     0
  9
$REGENMODE
 70
     1
  9
$FILLMODE
 70
     1
  9
$QTEXTMODE
 70
     0
  9
$MIRRTEXT
 70
     1
  9
$LTSCALE
 40
1.0
  9
$ATTMODE
 70
     1
  9
$TEXTSIZE
 40
0.2
  9
$TRACEWID
 40
0.05
  9
$TEXTSTYLE
  7
Standard
  9
$CLAYER
  8
0
  9
$CELTYPE
  6
BYLAYER
  9
$CECOLOR
 62
   256
  9
$CELTSCALE
 40
1.0
  9
$DISPSILH
 70
     0
  9
$DIMSCALE
 40
1.0
  9
$DIMASZ
 40
0.18
  9
$DIMEXO
 40
0.0625
  9
$DIMDLI
 40
0.38
  9
$DIMRND
 40
0.0
  9
$DIMDLE
 40
0.0
  9
$DIMEXE
 40
0.18
  9
$DIMTP
 40
0.0
  9
$DIMTM
 40
0.0
  9
$DIMTXT
 40
0.18
  9
$DIMCEN
 40
0.09
  9
$DIMTSZ
 40
0.0
  9
$DIMTOL
 70
     0
  9
$DIMLIM
 70
     0
  9
$DIMTIH
 70
     1
  9
$DIMTOH
 70
     1
  9
$DIMSE1
 70
     0
  9
$DIMSE2
 70
     0
  9
$DIMTAD
 70
     0
  9
$DIMZIN
 70
     0
  9
$DIMBLK
  1

  9
$DIMASO
 70
     1
  9
$DIMSHO
 70
     1
  9
$DIMPOST
  1

  9
$DIMAPOST
  1

  9
$DIMALT
 70
     0
  9
$DIMALTD
 70
     2
  9
$DIMALTF
 40
25.4
  9
$DIMLFAC
 40
1.0
  9
$DIMTOFL
 70
     0
  9
$DIMTVP
 40
0.0
  9
$DIMTIX
 70
     0
  9
$DIMSOXD
 70
     0
  9
$DIMSAH
 70
     0
  9
$DIMBLK1
  1

  9
$DIMBLK2
  1

  9
$DIMSTYLE
  2
Standard
  9
$DIMCLRD
 70
     0
  9
$DIMCLRE
 70
     0
  9
$DIMCLRT
 70
     0
  9
$DIMTFAC
 40
1.0
  9
$DIMGAP
 40
0.09
  9
$DIMJUST
 70
     0
  9
$DIMSD1
 70
     0
  9
$DIMSD2
 70
     0
  9
$DIMTOLJ
 70
     1
  9
$DIMTZIN
 70
     0
  9
$DIMALTZ
 70
     0
  9
$DIMALTTZ
 70
     0
  9
$DIMUPT
 70
     0
  9
$DIMDEC
 70
     4
  9
$DIMTDEC
 70
     4
  9
$DIMALTU
 70
     2
  9
$DIMALTTD
 70
     2
  9
$DIMTXSTY
  7
Standard
  9
$DIMAUNIT
 70
     0
  9
$DIMADEC
 70
     0
  9
$DIMALTRND
 40
0.0
  9
$DIMAZIN
 70
     0
  9
$DIMDSEP
 70
    46
  9
$DIMATFIT
 70
     3
  9
$DIMFRAC
 70
     0
  9
$DIMLDRBLK
  1

  9
$DIMLUNIT
 70
     2
  9
$DIMLWD
 70
    -2
  9
$DIMLWE
 70
    -2
  9
$DIMTMOVE
 70
     0
  9
$LUNITS
 70
     2
  9
$LUPREC
 70
     4
  9
$SKETCHINC
 40
0.1
  9
$FILLETRAD
 40
0.5
  9
$AUNITS
 70
     0
  9
$AUPREC
 70
     0
  9
$MENU
  1
.
  9
$ELEVATION
 40
0.0
  9
$PELEVATION
 40
0.0
  9
$THICKNESS
 40
0.0
  9
$LIMCHECK
 70
     0
  9
$CHAMFERA
 40
0.5
  9
$CHAMFERB
 40
0.5
  9
$CHAMFERC
 40
1.0
  9
$CHAMFERD
 40
0.0
  9
$SKPOLY
 70
     0
  9
$TDCREATE
 40
2456826.382679896
  9
$TDUCREATE
 40
2456826.591013229
  9
$TDUPDATE
 40
2456826.385536400
  9
$TDUUPDATE
 40
2456826.593869734
  9
$TDINDWG
 40
0.0025090625
  9
$TDUSRTIMER
 40
0.0025090625
  9
$USRTIMER
 70
     1
  9
$ANGBASE
 50
0.0
  9
$ANGDIR
 70
     0
  9
$PDMODE
 70
     0
  9
$PDSIZE
 40
0.0
  9
$PLINEWID
 40
0.0
  9
$SPLFRAME
 70
     0
  9
$SPLINETYPE
 70
     6
  9
$SPLINESEGS
 70
     8
  9
$HANDSEED
  5
34F
  9
$SURFTAB1
 70
     6
  9
$SURFTAB2
 70
     6
  9
$SURFTYPE
 70
     6
  9
$SURFU
 70
     6
  9
$SURFV
 70
     6
  9
$UCSBASE
  2

  9
$UCSNAME
  2

  9
$UCSORG
 10
0.0
 20
0.0
 30
0.0
  9
$UCSXDIR
 10
1.0
 20
0.0
 30
0.0
  9
$UCSYDIR
 10
0.0
 20
1.0
 30
0.0
  9
$UCSORTHOREF
  2

  9
$UCSORTHOVIEW
 70
     1
  9
$UCSORGTOP
 10
0.0
 20
0.0
 30
0.0
  9
$UCSORGBOTTOM
 10
0.0
 20
0.0
 30
0.0
  9
$UCSORGLEFT
 10
0.0
 20
0.0
 30
0.0
  9
$UCSORGRIGHT
 10
0.0
 20
0.0
 30
0.0
  9
$UCSORGFRONT
 10
0.0
 20
0.0
 30
0.0
  9
$UCSORGBACK
 10
0.0
 20
0.0
 30
0.0
  9
$PUCSBASE
  2

  9
$PUCSNAME
  2

  9
$PUCSORG
 10
0.0
 20
0.0
 30
0.0
  9
$PUCSXDIR
 10
1.0
 20
0.0
 30
0.0
  9
$PUCSYDIR
 10
0.0
 20
1.0
 30
0.0
  9
$PUCSORTHOREF
  2

  9
$PUCSORTHOVIEW
 70
     0
  9
$PUCSORGTOP
 10
0.0
 20
0.0
 30
0.0
  9
$PUCSORGBOTTOM
 10
0.0
 20
0.0
 30
0.0
  9
$PUCSORGLEFT
 10
0.0
 20
0.0
 30
0.0
  9
$PUCSORGRIGHT
 10
0.0
 20
0.0
 30
0.0
  9
$PUCSORGFRONT
 10
0.0
 20
0.0
 30
0.0
  9
$PUCSORGBACK
 10
0.0
 20
0.0
 30
0.0
  9
$USERI1
 70
     0
  9
$USERI2
 70
     0
  9
$USERI3
 70
     0
  9
$USERI4
 70
     0
  9
$USERI5
 70
     0
  9
$USERR1
 40
0.0
  9
$USERR2
 40
0.0
  9
$USERR3
 40
0.0
  9
$USERR4
 40
0.0
  9
$USERR5
 40
0.0
  9
$WORLDVIEW
 70
     1
  9
$SHADEDGE
 70
     3
  9
$SHADEDIF
 70
    70
  9
$TILEMODE
 70
     1
  9
$MAXACTVP
 70
    64
  9
$PINSBASE
 10
0.0
 20
0.0
 30
0.0
  9
$PLIMCHECK
 70
     0
  9
$PEXTMIN
 10
-0.5
 20
-0.5
 30
-0.5
  9
$PEXTMAX
 10
5.0
 20
5.0
 30
5.0
  9
$PLIMMIN
 10
-0.5
 20
-0.5
  9
$PLIMMAX
 10
5.0
 20
5.0
  9
$UNITMODE
 70
     0
  9
$VISRETAIN
 70
     1
  9
$PLINEGEN
 70
     0
  9
$PSLTSCALE
 70
     1
  9
$TREEDEPTH
 70
  3020
  9
$CMLSTYLE
  2
Standard
  9
$CMLJUST
 70
     0
  9
$CMLSCALE
 40
1.0
  9
$PROXYGRAPHICS
 70
     1
  9
$MEASUREMENT
 70
     0
  9
$CELWEIGHT
370
    -1
  9
$ENDCAPS
280
     0
  9
$JOINSTYLE
280
     0
  9
$LWDISPLAY
290
     0
  9
$INSUNITS
 70
     1
  9
$HYPERLINKBASE
  1

  9
$STYLESHEET
  1

  9
$XEDIT
290
     1
  9
$CEPSNTYPE
380
     0
  9
$PSTYLEMODE
290
     1
  9
$FINGERPRINTGUID
  2
{48477FA6-CA71-4E45-A5B8-E0BBBE3D4946}
  9
$VERSIONGUID
  2
{8C07F047-15D8-43AB-ACF0-B2A3112AB028}
  9
$EXTNAMES
290
     1
  9
$PSVPSCALE
 40
0.0
  9
$OLESTARTUP
290
     0
  0
ENDSEC
  0
SECTION
  2
CLASSES
  0
CLASS
  1
ACDBDICTIONARYWDFLT
  2
AcDbDictionaryWithDefault
  3
ObjectDBX Classes
 90
        0
280
     0
281
     0
  0
CLASS
  1
VISUALSTYLE
  2
AcDbVisualStyle
  3
ObjectDBX Classes
 90
     4095
280
     0
281
     0
  0
CLASS
  1
MATERIAL
  2
AcDbMaterial
  3
ObjectDBX Classes
 90
     1153
280
     0
281
     0
  0
CLASS
  1
TABLESTYLE
  2
AcDbTableStyle
  3
ObjectDBX Classes
 90
     4095
280
     0
281
     0
  0
CLASS
  1
SCALE
  2
AcDbScale
  3
ObjectDBX Classes
 90
     1153
280
     0
281
     0
  0
CLASS
  1
MLEADERSTYLE
  2
AcDbMLeaderStyle
  3
ACDB_MLEADERSTYLE_CLASS
 90
     4095
280
     0
281
     0
  0
CLASS
  1
CELLSTYLEMAP
  2
AcDbCellStyleMap
  3
ObjectDBX Classes
 90
     1152
280
     0
281
     0
  0
CLASS
  1
DICTIONARYVAR
  2
AcDbDictionaryVar
  3
ObjectDBX Classes
 90
        0
280
     0
281
     0
  0
CLASS
  1
ACDBPLACEHOLDER
  2
AcDbPlaceHolder
  3
ObjectDBX Classes
 90
        0
280
     0
281
     0
  0
CLASS
  1
LAYOUT
  2
AcDbLayout
  3
ObjectDBX Classes
 90
        0
280
     0
281
     0
  0
ENDSEC
  0
SECTION
  2
TABLES
  0
TABLE
  2
VPORT
  5
8
330
0
100
AcDbSymbolTable
 70
    17
  0
VPORT
  5
29
330
8
100
AcDbSymbolTableRecord
100
AcDbViewportTableRecord
  2
DUMMY
 70
     0
 10
0.0
 20
0.0
 11
1.0
 21
1.0
 12
10.42990654205607
 22
4.5
 13
0.0
 23
0.0
 14
0.5
 24
0.5
 15
0.5
 25
0.5
 16
0.0
 26
0.0
 36
1.0
 17
0.0
 27
0.0
 37
0.0
 40
9.0
 41
1.972972972850328
 42
50.0
 43
0.0
 44
0.0
 50
0.0
 51
0.0
 71
     0
 72
   100
 73
     1
 74
     3
 75
     0
 76
     0
 77
     0
 78
     0
281
     0
 65
     1
110
0.0
120
0.0
130
0.0
111
1.0
121
0.0
131
0.0
112
0.0
122
1.0
132
0.0
 79
     0
146
0.0
  0
VPORT
  5
1E9
330
8
100
AcDbSymbolTableRecord
100
AcDbViewportTableRecord
  2
*ACTIVE
 70
     0
 10
0.0
 20
0.0
 11
1.0
 21
1.0
 12
-75.00676132366061
 22
21.87358093261718
 13
0.0
 23
0.0
 14
0.5
 24
0.5
 15
0.5
 25
0.5
 16
0.0
 26
0.0
 36
1.0
 17
0.0
 27
0.0
 37
0.0
 40
117.4711603628248
 41
2.003811944091486
 42
50.0
 43
51.59978792092507
 44
-51.59978792092507
 50
0.0
 51
0.0
 71
     0
 72
   100
 73
     1
 74
     3
 75
     0
 76
     0
 77
     0
 78
     0
281
     0
 65
     1
110
0.0
120
0.0
130
0.0
111
1.0
121
0.0
131
0.0
112
0.0
122
1.0
132
0.0
 79
     0
146
0.0
1001
ACAD_NAV_VCDISPLAY
1070
     3
  0
VPORT
  5
1EA
330
8
100
AcDbSymbolTableRecord
100
AcDbViewportTableRecord
  2
L1
 70
     0
 10
0.0
 20
0.0
 11
1.0
 21
1.0
 12
27.58657291391865
 22
18.21837043762207
 13
0.0
 23
0.0
 14
0.5
 24
0.5
 15
0.5
 25
0.5
 16
0.7188730927569435
 26
-0.5850486126764432
 36
0.3754192287502549
 17
0.0
 27
0.0
 37
0.0
 40
31.65737478222011
 41
0.5609042720000199
 42
50.0
 43
51.59978792092507
 44
-51.59978792092507
 50
0.0
 51
0.0
 71
     0
 72
   100
 73
     1
 74
     3
 75
     0
 76
     0
 77
     0
 78
     0
281
     0
 65
     1
110
0.0
120
0.0
130
0.0
111
1.0
121
0.0
131
0.0
112
0.0
122
1.0
132
0.0
 79
     0
146
0.0
  0
VPORT
  5
1EB
330
8
100
AcDbSymbolTableRecord
100
AcDbViewportTableRecord
  2
L2
 70
     0
 10
0.0
 20
0.0
 11
0.5
 21
1.0
 12
0.0
 22
0.0
 13
0.0
 23
0.0
 14
0.5
 24
0.5
 15
0.5
 25
0.5
 16
0.0
 26
-1.0
 36
0.0
 17
0.0
 27
0.0
 37
0.0
 40
30.49981439122291
 41
0.5821922890377627
 42
50.0
 43
15.77927271104933
 44
-15.77927271104933
 50
0.0
 51
0.0
 71
     0
 72
   100
 73
     1
 74
     3
 75
     0
 76
     0
 77
     0
 78
     0
281
     0
 65
     1
110
0.0
120
0.0
130
0.0
111
1.0
121
0.0
131
0.0
112
0.0
122
1.0
132
0.0
 79
     0
146
0.0
  0
VPORT
  5
1EC
330
8
100
AcDbSymbolTableRecord
100
AcDbViewportTableRecord
  2
L2
 70
     0
 10
0.5
 20
0.0
 11
1.0
 21
1.0
 12
0.0
 22
0.0
 13
0.0
 23
0.0
 14
0.5
 24
0.5
 15
0.5
 25
0.5
 16
1.0
 26
0.0
 36
0.0
 17
0.0
 27
0.0
 37
0.0
 40
30.49981439122291
 41
0.5821922890377627
 42
50.0
 43
15.40346591533207
 44
-15.40346591533207
 50
0.0
 51
0.0
 71
     0
 72
   100
 73
     1
 74
     3
 75
     0
 76
     0
 77
     0
 78
     0
281
     0
 65
     1
110
0.0
120
0.0
130
0.0
111
1.0
121
0.0
131
0.0
112
0.0
122
1.0
132
0.0
 79
     0
146
0.0
  0
VPORT
  5
1ED
330
8
100
AcDbSymbolTableRecord
100
AcDbViewportTableRecord
  2
L3
 70
     0
 10
0.0
 20
0.5
 11
1.0
 21
1.0
 12
0.0
 22
0.0
 13
0.0
 23
0.0
 14
0.5
 24
0.5
 15
0.5
 25
0.5
 16
0.0
 26
0.0
 36
1.0
 17
0.0
 27
0.0
 37
0.0
 40
4.339167076771653
 41
4.092203974054856
 42
50.0
 43
15.24990719561145
 44
-15.24990719561145
 50
0.0
 51
0.0
 71
     0
 72
   100
 73
     1
 74
     3
 75
     0
 76
     0
 77
     0
 78
     0
281
     0
 65
     1
110
0.0
120
0.0
130
0.0
111
1.0
121
0.0
131
0.0
112
0.0
122
1.0
132
0.0
 79
     0
146
0.0
  0
VPORT
  5
1EE
330
8
100
AcDbSymbolTableRecord
100
AcDbViewportTableRecord
  2
L3
 70
     0
 10
0.0
 20
0.0
 11
1.0
 21
0.5
 12
0.0
 22
0.0
 13
0.0
 23
0.0
 14
0.5
 24
0.5
 15
0.5
 25
0.5
 16
0.0
 26
-1.0
 36
0.0
 17
0.0
 27
0.0
 37
0.0
 40
30.49981439122291
 41
0.5821922890377627
 42
50.0
 43
15.77927271104933
 44
-15.77927271104933
 50
0.0
 51
0.0
 71
     0
 72
   100
 73
     1
 74
     3
 75
     0
 76
     0
 77
     0
 78
     0
281
     0
 65
     1
110
0.0
120
0.0
130
0.0
111
1.0
121
0.0
131
0.0
112
0.0
122
1.0
132
0.0
 79
     0
146
0.0
  0
VPORT
  5
1EF
330
8
100
AcDbSymbolTableRecord
100
AcDbViewportTableRecord
  2
L4
 70
     0
 10
0.0
 20
0.5
 11
0.5
 21
1.0
 12
0.0
 22
0.0
 13
0.0
 23
0.0
 14
0.5
 24
0.5
 15
0.5
 25
0.5
 16
0.0
 26
0.0
 36
1.0
 17
0.0
 27
0.0
 37
0.0
 40
4.339167076771653
 41
4.092203974054856
 42
50.0
 43
15.24990719561145
 44
-15.24990719561145
 50
0.0
 51
0.0
 71
     0
 72
   100
 73
     1
 74
     3
 75
     0
 76
     0
 77
     0
 78
     0
281
     0
 65
     1
110
0.0
120
0.0
130
0.0
111
1.0
121
0.0
131
0.0
112
0.0
122
1.0
132
0.0
 79
     0
146
0.0
  0
VPORT
  5
1F0
330
8
100
AcDbSymbolTableRecord
100
AcDbViewportTableRecord
  2
L4
 70
     0
 10
0.0
 20
0.0
 11
0.5
 21
0.5
 12
0.0
 22
0.0
 13
0.0
 23
0.0
 14
0.5
 24
0.5
 15
0.5
 25
0.5
 16
0.0
 26
-1.0
 36
0.0
 17
0.0
 27
0.0
 37
0.0
 40
30.49981439122291
 41
0.5821922890377627
 42
50.0
 43
15.77927271104933
 44
-15.77927271104933
 50
0.0
 51
0.0
 71
     0
 72
   100
 73
     1
 74
     3
 75
     0
 76
     0
 77
     0
 78
     0
281
     0
 65
     1
110
0.0
120
0.0
130
0.0
111
1.0
121
0.0
131
0.0
112
0.0
122
1.0
132
0.0
 79
     0
146
0.0
  0
VPORT
  5
1F1
330
8
100
AcDbSymbolTableRecord
100
AcDbViewportTableRecord
  2
L4
 70
     0
 10
0.5
 20
0.0
 11
1.0
 21
0.5
 12
0.0
 22
0.0
 13
0.0
 23
0.0
 14
0.5
 24
0.5
 15
0.5
 25
0.5
 16
1.0
 26
0.0
 36
0.0
 17
0.0
 27
0.0
 37
0.0
 40
30.49981439122291
 41
0.5821922890377627
 42
50.0
 43
15.40346591533207
 44
-15.40346591533207
 50
0.0
 51
0.0
 71
     0
 72
   100
 73
     1
 74
     3
 75
     0
 76
     0
 77
     0
 78
     0
281
     0
 65
     1
110
0.0
120
0.0
130
0.0
111
1.0
121
0.0
131
0.0
112
0.0
122
1.0
132
0.0
 79
     0
146
0.0
  0
VPORT
  5
1F2
330
8
100
AcDbSymbolTableRecord
100
AcDbViewportTableRecord
  2
L4
 70
     0
 10
0.5
 20
0.5
 11
1.0
 21
1.0
 12
0.0
 22
0.0
 13
0.0
 23
0.0
 14
0.5
 24
0.5
 15
0.5
 25
0.5
 16
0.5773502691896259
 26
-0.5773502691896259
 36
0.5773502691896259
 17
0.0
 27
0.0
 37
0.0
 40
29.98360848273399
 41
0.5922154688578648
 42
50.0
 43
15.62413760059691
 44
-15.62413760059691
 50
0.0
 51
0.0
 71
     0
 72
   100
 73
     1
 74
     3
 75
     0
 76
     0
 77
     0
 78
     0
281
     0
 65
     1
110
0.0
120
0.0
130
0.0
111
1.0
121
0.0
131
0.0
112
0.0
122
1.0
132
0.0
 79
     0
146
0.0
  0
VPORT
  5
1F3
330
8
100
AcDbSymbolTableRecord
100
AcDbViewportTableRecord
  2
L6
 70
     0
 10
0.0
 20
0.5
 11
0.3333333333333334
 21
1.0
 12
27.58657291391865
 22
18.21837043762207
 13
0.0
 23
0.0
 14
0.5
 24
0.5
 15
0.5
 25
0.5
 16
0.7188730927569435
 26
-0.5850486126764432
 36
0.3754192287502549
 17
0.0
 27
0.0
 37
0.0
 40
31.65737478222011
 41
0.5609042720000199
 42
50.0
 43
51.59978792092507
 44
-51.59978792092507
 50
0.0
 51
0.0
 71
     0
 72
   100
 73
     1
 74
     3
 75
     0
 76
     0
 77
     0
 78
     0
281
     0
 65
     1
110
0.0
120
0.0
130
0.0
111
1.0
121
0.0
131
0.0
112
0.0
122
1.0
132
0.0
 79
     0
146
0.0
  0
VPORT
  5
1F4
330
8
100
AcDbSymbolTableRecord
100
AcDbViewportTableRecord
  2
L6
 70
     0
 10
0.0
 20
0.0
 11
0.3333333333333334
 21
0.5
 12
0.0
 22
0.0
 13
0.0
 23
0.0
 14
0.5
 24
0.5
 15
0.5
 25
0.5
 16
-1.0
 26
0.0
 36
0.0
 17
0.0
 27
0.0
 37
0.0
 40
30.49981439122291
 41
0.5821922890377627
 42
50.0
 43
15.40346591533207
 44
-15.40346591533207
 50
0.0
 51
0.0
 71
     0
 72
   100
 73
     1
 74
     3
 75
     0
 76
     0
 77
     0
 78
     0
281
     0
 65
     1
110
0.0
120
0.0
130
0.0
111
1.0
121
0.0
131
0.0
112
0.0
122
1.0
132
0.0
 79
     0
146
0.0
  0
VPORT
  5
1F5
330
8
100
AcDbSymbolTableRecord
100
AcDbViewportTableRecord
  2
L6
 70
     0
 10
0.3333333333333334
 20
0.5
 11
0.6666666666666666
 21
1.0
 12
0.0
 22
0.0
 13
0.0
 23
0.0
 14
0.5
 24
0.5
 15
0.5
 25
0.5
 16
0.0
 26
0.0
 36
1.0
 17
0.0
 27
0.0
 37
0.0
 40
4.339167076771653
 41
4.092203974054856
 42
50.0
 43
15.24990719561145
 44
-15.24990719561145
 50
0.0
 51
0.0
 71
     0
 72
   100
 73
     1
 74
     3
 75
     0
 76
     0
 77
     0
 78
     0
281
     0
 65
     1
110
0.0
120
0.0
130
0.0
111
1.0
121
0.0
131
0.0
112
0.0
122
1.0
132
0.0
 79
     0
146
0.0
  0
VPORT
  5
1F6
330
8
100
AcDbSymbolTableRecord
100
AcDbViewportTableRecord
  2
L6
 70
     0
 10
0.3333333333333334
 20
0.0
 11
0.6666666666666666
 21
0.5
 12
0.0
 22
0.0
 13
0.0
 23
0.0
 14
0.5
 24
0.5
 15
0.5
 25
0.5
 16
0.0
 26
-1.0
 36
0.0
 17
0.0
 27
0.0
 37
0.0
 40
30.49981439122291
 41
0.5821922890377627
 42
50.0
 43
15.77927271104933
 44
-15.77927271104933
 50
0.0
 51
0.0
 71
     0
 72
   100
 73
     1
 74
     3
 75
     0
 76
     0
 77
     0
 78
     0
281
     0
 65
     1
110
0.0
120
0.0
130
0.0
111
1.0
121
0.0
131
0.0
112
0.0
122
1.0
132
0.0
 79
     0
146
0.0
  0
VPORT
  5
1F7
330
8
100
AcDbSymbolTableRecord
100
AcDbViewportTableRecord
  2
L6
 70
     0
 10
0.6666666666666666
 20
0.5
 11
1.0
 21
1.0
 12
0.0
 22
0.0
 13
0.0
 23
0.0
 14
0.5
 24
0.5
 15
0.5
 25
0.5
 16
0.5773502691896259
 26
-0.5773502691896259
 36
0.5773502691896259
 17
0.0
 27
0.0
 37
0.0
 40
29.98360848273399
 41
0.5922154688578648
 42
50.0
 43
15.62413760059691
 44
-15.62413760059691
 50
0.0
 51
0.0
 71
     0
 72
   100
 73
     1
 74
     3
 75
     0
 76
     0
 77
     0
 78
     0
281
     0
 65
     1
110
0.0
120
0.0
130
0.0
111
1.0
121
0.0
131
0.0
112
0.0
122
1.0
132
0.0
 79
     0
146
0.0
  0
VPORT
  5
1F8
330
8
100
AcDbSymbolTableRecord
100
AcDbViewportTableRecord
  2
L6
 70
     0
 10
0.6666666666666666
 20
0.0
 11
1.0
 21
0.5
 12
0.0
 22
0.0
 13
0.0
 23
0.0
 14
0.5
 24
0.5
 15
0.5
 25
0.5
 16
1.0
 26
0.0
 36
0.0
 17
0.0
 27
0.0
 37
0.0
 40
30.49981439122291
 41
0.5821922890377627
 42
50.0
 43
15.40346591533207
 44
-15.40346591533207
 50
0.0
 51
0.0
 71
     0
 72
   100
 73
     1
 74
     3
 75
     0
 76
     0
 77
     0
 78
     0
281
     0
 65
     1
110
0.0
120
0.0
130
0.0
111
1.0
121
0.0
131
0.0
112
0.0
122
1.0
132
0.0
 79
     0
146
0.0
  0
ENDTAB
  0
TABLE
  2
LTYPE
  5
5
330
0
100
AcDbSymbolTable
 70
     7
  0
LTYPE
  5
14
330
5
100
AcDbSymbolTableRecord
100
AcDbLinetypeTableRecord
  2
BYBLOCK
 70
     0
  3

 72
    65
 73
     0
 40
0.0
  0
LTYPE
  5
15
330
5
100
AcDbSymbolTableRecord
100
AcDbLinetypeTableRecord
  2
BYLAYER
 70
     0
  3

 72
    65
 73
     0
 40
0.0
  0
LTYPE
  5
16
330
5
100
AcDbSymbolTableRecord
100
AcDbLinetypeTableRecord
  2
CONTINUOUS
 70
     0
  3
Solid line
 72
    65
 73
     0
 40
0.0
  0
LTYPE
  5
3F
330
5
100
AcDbSymbolTableRecord
100
AcDbLinetypeTableRecord
  2
DASHED
 70
     0
  3
__ __ __ __ __ __ __ __ __
 72
    65
 73
     2
 40
25.72
 49
12.86
 74
     4
 75
     0
340
0
 46
0.0
 50
0.0
 44
0.0
 45
0.0
 49
-12.86
 74
     4
 75
     0
340
0
 46
0.0
 50
0.0
 44
0.0
 45
0.0
  0
LTYPE
  5
40
330
5
100
AcDbSymbolTableRecord
100
AcDbLinetypeTableRecord
  2
HIDDEN
 70
     0
  3
_ _ _ _ _ _ _ _ _ _ _ _ _ _ _
 72
    65
 73
     2
 40
0.5
 49
0.25
 74
     4
 75
     0
340
0
 46
0.0
 50
0.0
 44
0.0
 45
0.0
 49
-0.25
 74
     4
 75
     0
340
0
 46
0.0
 50
0.0
 44
0.0
 45
0.0
  0
LTYPE
  5
41
330
5
100
AcDbSymbolTableRecord
100
AcDbLinetypeTableRecord
  2
PHANTOM
 70
     0
  3
____ _ _ ____ _ _ _____ _ _ ____
 72
    65
 73
     6
 40
50.5
 49
18.0
 74
     4
 75
     0
340
0
 46
0.0
 50
0.0
 44
0.0
 45
0.0
 49
-6.5
 74
     4
 75
     0
340
0
 46
0.0
 50
0.0
 44
0.0
 45
0.0
 49
6.5
 74
     4
 75
     0
340
0
 46
0.0
 50
0.0
 44
0.0
 45
0.0
 49
-6.5
 74
     4
 75
     0
340
0
 46
0.0
 50
0.0
 44
0.0
 45
0.0
 49
6.5
 74
     4
 75
     0
340
0
 46
0.0
 50
0.0
 44
0.0
 45
0.0
 49
-6.5
 74
     4
 75
     0
340
0
 46
0.0
 50
0.0
 44
0.0
 45
0.0
  0
LTYPE
  5
42
330
5
100
AcDbSymbolTableRecord
100
AcDbLinetypeTableRecord
  2
CENTER
 70
     0
  3
____ _ ____ _ ____ _ ____
 72
    65
 73
     4
 40
47.4
 49
22.0
 74
     4
 75
     0
340
0
 46
0.0
 50
0.0
 44
0.0
 45
0.0
 49
-8.5
 74
     4
 75
     0
340
0
 46
0.0
 50
0.0
 44
0.0
 45
0.0
 49
8.5
 74
     4
 75
     0
340
0
 46
0.0
 50
0.0
 44
0.0
 45
0.0
 49
-8.5
 74
     4
 75
     0
340
0
 46
0.0
 50
0.0
 44
0.0
 45
0.0
  0
LTYPE
  5
43
330
5
100
AcDbSymbolTableRecord
100
AcDbLinetypeTableRecord
  2
DOT
 70
     0
  3
.........................
 72
    65
 73
     2
 40
10.0
 49
0.0
 74
     4
 75
     0
340
0
 46
0.0
 50
0.0
 44
0.0
 45
0.0
 49
-10.0
 74
     4
 75
     0
340
0
 46
0.0
 50
0.0
 44
0.0
 45
0.0
  0
LTYPE
  5
44
330
5
100
AcDbSymbolTableRecord
100
AcDbLinetypeTableRecord
  2
DASHDOT
 70
     0
  3
_._._._._._._._._._._._._._._._.
 72
    65
 73
     4
 40
70.0
 49
31.0
 74
     4
 75
     0
340
0
 46
0.0
 50
0.0
 44
0.0
 45
0.0
 49
-13.0
 74
     4
 75
     0
340
0
 46
0.0
 50
0.0
 44
0.0
 45
0.0
 49
13.0
 74
     4
 75
     0
340
0
 46
0.0
 50
0.0
 44
0.0
 45
0.0
 49
-13.0
 74
     4
 75
     0
340
0
 46
0.0
 50
0.0
 44
0.0
 45
0.0
  0
ENDTAB
  0
TABLE
  2
LAYER
  5
2
330
0
100
AcDbSymbolTable
 70
     2
  0
LAYER
  5
10
102
{ACAD_XDICTIONARY
360
245
102
}
330
2
100
AcDbSymbolTableRecord
100
AcDbLayerTableRecord
  2
0
 70
     0
 62
     7
  6
CONTINUOUS
370
    -3
390
F
  0
LAYER
  5
46
102
{ACAD_XDICTIONARY
360
247
102
}
330
2
100
AcDbSymbolTableRecord
100
AcDbLayerTableRecord
  2
TFR-TRI
 70
     0
 62
     7
  6
CONTINUOUS
370
    -3
390
F
  0
ENDTAB
  0
TABLE
  2
STYLE
  5
3
330
0
100
AcDbSymbolTable
 70
     1
  0
STYLE
  5
11
330
3
100
AcDbSymbolTableRecord
100
AcDbTextStyleTableRecord
  2
Standard
 70
     0
 40
0.0
 41
1.0
 50
0.0
 71
     0
 42
0.2
  3
txt
  4

  0
ENDTAB
  0
TABLE
  2
VIEW
  5
6
330
0
100
AcDbSymbolTable
 70
     0
  0
ENDTAB
  0
TABLE
  2
UCS
  5
7
330
0
100
AcDbSymbolTable
 70
     0
  0
ENDTAB
  0
TABLE
  2
APPID
  5
9
330
0
100
AcDbSymbolTable
 70
     3
  0
APPID
  5
12
330
9
100
AcDbSymbolTableRecord
100
AcDbRegAppTableRecord
  2
ACAD
 70
     0
  0
APPID
  5
249
330
9
100
AcDbSymbolTableRecord
100
AcDbRegAppTableRecord
  2
ACAD_NAV_VCDISPLAY
 70
     0
  0
APPID
  5
34E
330
9
100
AcDbSymbolTableRecord
100
AcDbRegAppTableRecord
  2
ACAD_MLEADERVER
 70
     0
  0
ENDTAB
  0
TABLE
  2
DIMSTYLE
  5
A
330
0
100
AcDbSymbolTable
 70
     1
100
AcDbDimStyleTable
 71
     0
  0
DIMSTYLE
105
27
330
A
100
AcDbSymbolTableRecord
100
AcDbDimStyleTableRecord
  2
Standard
 70
     0
340
11
  0
ENDTAB
  0
TABLE
  2
BLOCK_RECORD
  5
1
330
0
100
AcDbSymbolTable
 70
     1
  0
BLOCK_RECORD
  5
1F
330
1
100
AcDbSymbolTableRecord
100
AcDbBlockTableRecord
  2
*Model_Space
340
22
  0
BLOCK_RECORD
  5
1B
330
1
100
AcDbSymbolTableRecord
100
AcDbBlockTableRecord
  2
*Paper_Space
340
1E
  0
BLOCK_RECORD
  5
23
330
1
100
AcDbSymbolTableRecord
100
AcDbBlockTableRecord
  2
*Paper_Space0
340
26
  0
ENDTAB
  0
ENDSEC
  0
SECTION
  2
BLOCKS
  0
BLOCK
  5
20
330
1F
100
AcDbEntity
  8
0
100
AcDbBlockBegin
  2
*Model_Space
 70
     0
 10
0.0
 20
0.0
 30
0.0
  3
*Model_Space
  1

  0
ENDBLK
  5
21
330
1F
100
AcDbEntity
  8
0
100
AcDbBlockEnd
  0
BLOCK
  5
1C
330
1B
100
AcDbEntity
 67
     1
  8
0
100
AcDbBlockBegin
  2
*Paper_Space
 70
     0
 10
0.0
 20
0.0
 30
0.0
  3
*Paper_Space
  1

  0
ENDBLK
  5
1D
330
1B
100
AcDbEntity
 67
     1
  8
0
100
AcDbBlockEnd
  0
BLOCK
  5
24
330
23
100
AcDbEntity
 67
     1
  8
0
100
AcDbBlockBegin
  2
*Paper_Space0
 70
     0
 10
0.0
 20
0.0
 30
0.0
  3
*Paper_Space0
  1

  0
ENDBLK
  5
25
330
23
100
AcDbEntity
 67
     1
  8
0
100
AcDbBlockEnd
  0
ENDSEC
  0
SECTION
  2
ENTITIES
  0
LINE
  5
45
330
1F
100
AcDbEntity
  8
TFR-TRI
  6
Continuous
 62
     1
100
AcDbLine
 10
-191.6928215026855
 20
17.89445495605469
 30
0.0
 11
-192.1258964538574
 21
17.89445495605469
 31
0.0
  0
LINE
  5
47
330
1F
100
AcDbEntity
  8
TFR-TRI
  6
Continuous
 62
     1
100
AcDbLine
 10
-191.6928215026855
 20
17.95744323730469
 30
0.0
 11
-192.1258964538574
 21
17.95744323730469
 31
0.0
  0
LINE
  5
48
330
1F
100
AcDbEntity
  8
TFR-TRI
  6
Continuous
 62
     1
100
AcDbLine
 10
-192.2046394348144
 20
17.90034484863281
 30
0.0
 11
-192.2046394348144
 21
17.948974609375
 31
0.0
  0
LINE
  5
49
330
1F
100
AcDbEntity
  8
TFR-TRI
  6
Continuous
 62
     1
100
AcDbLine
 10
-192.0865287780761
 20
18.49287414550781
 30
0.0
 11
-192.0865287780761
 21
18.55586242675781
 31
0.0
  0
LINE
  5
4A
330
1F
100
AcDbEntity
  8
TFR-TRI
  6
Continuous
 62
     1
100
AcDbLine
 10
-191.6613273620605
 20
19.91807556152344
 30
0.0
 11
-191.5983390808105
 21
19.91807556152344
 31
0.0
  0
LINE
  5
4B
330
1F
100
AcDbEntity
  8
TFR-TRI
  6
Continuous
 62
     1
100
AcDbLine
 10
-191.6613273620605
 20
19.20941162109375
 30
0.0
 11
-191.6613273620605
 21
19.83934020996094
 31
0.0
  0
LINE
  5
4C
330
1F
100
AcDbEntity
  8
TFR-TRI
  6
Continuous
 62
     1
100
AcDbLine
 10
-191.6613273620605
 20
19.83934020996094
 30
0.0
 11
-191.6613273620605
 21
19.91807556152344
 31
0.0
  0
LINE
  5
4D
330
1F
100
AcDbEntity
  8
TFR-TRI
  6
Continuous
 62
     1
100
AcDbLine
 10
-191.6613273620605
 20
17.98893737792969
 30
0.0
 11
-191.6613273620605
 21
18.38264465332031
 31
0.0
  0
LINE
  5
4E
330
1F
100
AcDbEntity
  8
TFR-TRI
  6
Continuous
 62
     1
100
AcDbLine
 10
-191.6613273620605
 20
18.38264465332031
 30
0.0
 11
-191.6613273620605
 21
18.46138000488281
 31
0.0
  0
LINE
  5
4F
330
1F
100
AcDbEntity
  8
TFR-TRI
  6
Continuous
 62
     1
100
AcDbLine
 10
-191.6613273620605
 20
18.55047607421875
 30
0.0
 11
-191.6613273620605
 21
19.05192565917969
 31
0.0
  0
LINE
  5
50
330
1F
100
AcDbEntity
  8
TFR-TRI
  6
Continuous
 62
     1
100
AcDbLine
 10
-191.6613273620605
 20
19.05192565917969
 30
0.0
 11
-191.6613273620605
 21
19.13067626953125
 31
0.0
  0
LINE
  5
51
330
1F
100
AcDbEntity
  8
TFR-TRI
  6
Continuous
 62
     1
100
AcDbLine
 10
-191.6613273620605
 20
19.13067626953125
 30
0.0
 11
-191.6613273620605
 21
19.20941162109375
 31
0.0
  0
LINE
  5
52
330
1F
100
AcDbEntity
  8
TFR-TRI
  6
Continuous
 62
     1
100
AcDbLine
 10
-191.5983390808105
 20
19.91807556152344
 30
0.0
 11
-191.5983390808105
 21
19.83934020996094
 31
0.0
  0
LINE
  5
53
330
1F
100
AcDbEntity
  8
TFR-TRI
  6
Continuous
 62
     1
100
AcDbLine
 10
-191.5983390808105
 20
19.20941162109375
 30
0.0
 11
-191.5983390808105
 21
19.83934020996094
 31
0.0
  0
LINE
  5
54
330
1F
100
AcDbEntity
  8
TFR-TRI
  6
Continuous
 62
     1
100
AcDbLine
 10
-191.5983390808105
 20
19.20941162109375
 30
0.0
 11
-191.5983390808105
 21
19.13067626953125
 31
0.0
  0
LINE
  5
55
330
1F
100
AcDbEntity
  8
TFR-TRI
  6
Continuous
 62
     1
100
AcDbLine
 10
-191.5983390808105
 20
19.13067626953125
 30
0.0
 11
-191.5983390808105
 21
19.05192565917969
 31
0.0
  0
LINE
  5
56
330
1F
100
AcDbEntity
  8
TFR-TRI
  6
Continuous
 62
     1
100
AcDbLine
 10
-191.5983390808105
 20
18.46138000488281
 30
0.0
 11
-191.5983390808105
 21
19.05192565917969
 31
0.0
  0
LINE
  5
57
330
1F
100
AcDbEntity
  8
TFR-TRI
  6
Continuous
 62
     1
100
AcDbLine
 10
-191.5983390808105
 20
18.46138000488281
 30
0.0
 11
-191.5983390808105
 21
18.38264465332031
 31
0.0
  0
LINE
  5
58
330
1F
100
AcDbEntity
  8
TFR-TRI
  6
Continuous
 62
     1
100
AcDbLine
 10
-191.5983390808105
 20
17.98893737792969
 30
0.0
 11
-191.5983390808105
 21
18.38264465332031
 31
0.0
  0
LINE
  5
59
330
1F
100
AcDbEntity
  8
TFR-TRI
  6
Continuous
 62
     1
100
AcDbLine
 10
-191.5983390808105
 20
19.05192565917969
 30
0.0
 11
-191.6613273620605
 21
19.05192565917969
 31
0.0
  0
LINE
  5
5A
330
1F
100
AcDbEntity
  8
TFR-TRI
  6
Continuous
 62
     1
100
AcDbLine
 10
-191.6613273620605
 20
18.46138000488281
 30
0.0
 11
-191.5983390808105
 21
18.46138000488281
 31
0.0
  0
LINE
  5
5B
330
1F
100
AcDbEntity
  8
TFR-TRI
  6
Continuous
 62
     1
100
AcDbLine
 10
-191.5983390808105
 20
18.38264465332031
 30
0.0
 11
-191.6613273620605
 21
18.38264465332031
 31
0.0
  0
LINE
  5
5C
330
1F
100
AcDbEntity
  8
TFR-TRI
  6
Continuous
 62
     1
100
AcDbLine
 10
-191.6613273620605
 20
17.98893737792969
 30
0.0
 11
-191.5983390808105
 21
17.98893737792969
 31
0.0
  0
LINE
  5
5D
330
1F
100
AcDbEntity
  8
TFR-TRI
  6
Continuous
 62
     1
100
AcDbLine
 10
-191.6928215026855
 20
17.95744323730469
 30
0.0
 11
-191.6928215026855
 21
17.89445495605469
 31
0.0
  0
LINE
  5
5E
330
1F
100
AcDbEntity
  8
TFR-TRI
  6
Continuous
 62
     1
100
AcDbLine
 10
-192.1258964538574
 20
17.95744323730469
 30
0.0
 11
-192.1258964538574
 21
17.89445495605469
 31
0.0
  0
LINE
  5
5F
330
1F
100
AcDbEntity
  8
TFR-TRI
  6
Continuous
 62
     1
100
AcDbLine
 10
-191.6928215026855
 20
18.55586242675781
 30
0.0
 11
-191.6928215026855
 21
18.49287414550781
 31
0.0
  0
LINE
  5
60
330
1F
100
AcDbEntity
  8
TFR-TRI
  6
Continuous
 62
     1
100
AcDbLine
 10
-191.6928215026855
 20
18.55586242675781
 30
0.0
 11
-192.0077857971191
 21
18.55586242675781
 31
0.0
  0
LINE
  5
61
330
1F
100
AcDbEntity
  8
TFR-TRI
  6
Continuous
 62
     1
100
AcDbLine
 10
-192.0077857971191
 20
18.55586242675781
 30
0.0
 11
-192.0077857971191
 21
18.49287414550781
 31
0.0
  0
LINE
  5
62
330
1F
100
AcDbEntity
  8
TFR-TRI
  6
Continuous
 62
     1
100
AcDbLine
 10
-191.6928215026855
 20
18.49287414550781
 30
0.0
 11
-192.0077857971191
 21
18.49287414550781
 31
0.0
  0
LINE
  5
63
330
1F
100
AcDbEntity
  8
TFR-TRI
  6
Continuous
 62
     1
100
AcDbLine
 10
-192.0865287780761
 20
18.55586242675781
 30
0.0
 11
-192.0077857971191
 21
18.55586242675781
 31
0.0
  0
LINE
  5
64
330
1F
100
AcDbEntity
  8
TFR-TRI
  6
Continuous
 62
     1
100
AcDbLine
 10
-192.0077857971191
 20
18.49287414550781
 30
0.0
 11
-192.0865287780761
 21
18.49287414550781
 31
0.0
  0
LINE
  5
65
330
1F
100
AcDbEntity
  8
TFR-TRI
  6
Continuous
 62
     1
100
AcDbLine
 10
-191.5983390808105
 20
19.83934020996094
 30
0.0
 11
-191.6613273620605
 21
19.83934020996094
 31
0.0
  0
LINE
  5
66
330
1F
100
AcDbEntity
  8
TFR-TRI
  6
Continuous
 62
     1
100
AcDbLine
 10
-191.6613273620605
 20
19.20941162109375
 30
0.0
 11
-191.5983390808105
 21
19.20941162109375
 31
0.0
  0
LINE
  5
67
330
1F
100
AcDbEntity
  8
TFR-TRI
  6
Continuous
 62
     1
100
AcDbLine
 10
-191.6613273620605
 20
19.13067626953125
 30
0.0
 11
-191.5983390808105
 21
19.13067626953125
 31
0.0
  0
LINE
  5
68
330
1F
100
AcDbEntity
  8
TFR-TRI
  6
Continuous
 62
   251
100
AcDbLine
 10
-191.9165306091308
 20
16.10508728027344
 30
0.0
 11
-191.8603096008301
 21
17.69619750976562
 31
0.0
  0
LINE
  5
69
330
1F
100
AcDbEntity
  8
TFR-TRI
  6
Continuous
 62
   251
100
AcDbLine
 10
-191.8603096008301
 20
17.69619750976562
 30
0.0
 11
-191.7211112976074
 21
17.83540344238281
 31
0.0
  0
LINE
  5
6A
330
1F
100
AcDbEntity
  8
TFR-TRI
  6
Continuous
 62
   251
100
AcDbLine
 10
-191.7211112976074
 20
17.83540344238281
 30
0.0
 11
-191.7211112976074
 21
17.85508728027344
 31
0.0
  0
LINE
  5
6B
330
1F
100
AcDbEntity
  8
TFR-TRI
  6
Continuous
 62
   251
100
AcDbLine
 10
-191.7211112976074
 20
17.85508728027344
 30
0.0
 11
-191.6962928771972
 21
17.85508728027344
 31
0.0
  0
LINE
  5
6C
330
1F
100
AcDbEntity
  8
TFR-TRI
  6
Continuous
 62
   251
100
AcDbLine
 10
-191.6962928771972
 20
17.85508728027344
 30
0.0
 11
-191.6962928771972
 21
17.89445495605469
 31
0.0
  0
LINE
  5
6D
330
1F
100
AcDbEntity
  8
TFR-TRI
  6
Continuous
 62
   251
100
AcDbLine
 10
-191.6962928771972
 20
17.89445495605469
 30
0.0
 11
-192.186710357666
 21
17.89445495605469
 31
0.0
  0
LINE
  5
6E
330
1F
100
AcDbEntity
  8
TFR-TRI
  6
Continuous
 62
   251
100
AcDbLine
 10
-192.186710357666
 20
17.95486450195312
 30
0.0
 11
-191.6962928771972
 21
17.95486450195312
 31
0.0
  0
LINE
  5
6F
330
1F
100
AcDbEntity
  8
TFR-TRI
  6
Continuous
 62
   251
100
AcDbLine
 10
-191.6962928771972
 20
17.95486450195312
 30
0.0
 11
-191.6962928771972
 21
17.99423217773437
 31
0.0
  0
LINE
  5
70
330
1F
100
AcDbEntity
  8
TFR-TRI
  6
Continuous
 62
   251
100
AcDbLine
 10
-191.6962928771972
 20
17.99423217773437
 30
0.0
 11
-192.186710357666
 21
17.99423217773437
 31
0.0
  0
LINE
  5
71
330
1F
100
AcDbEntity
  8
TFR-TRI
  6
Continuous
 62
   251
100
AcDbLine
 10
-192.186710357666
 20
17.85508728027344
 30
0.0
 11
-192.186710357666
 21
17.83540344238281
 31
0.0
  0
LINE
  5
72
330
1F
100
AcDbEntity
  8
TFR-TRI
  6
Continuous
 62
   251
100
AcDbLine
 10
-192.186710357666
 20
17.83540344238281
 30
0.0
 11
-192.0475196838379
 21
17.69619750976562
 31
0.0
  0
LINE
  5
73
330
1F
100
AcDbEntity
  8
TFR-TRI
  6
Continuous
 62
   251
100
AcDbLine
 10
-192.0475196838379
 20
17.69619750976562
 30
0.0
 11
-191.9813652038574
 21
16.10508728027344
 31
0.0
  0
LINE
  5
74
330
1F
100
AcDbEntity
  8
TFR-TRI
  6
Continuous
 62
   251
100
AcDbLine
 10
-191.9813652038574
 20
16.10508728027344
 30
0.0
 11
-191.9165306091308
 21
16.10508728027344
 31
0.0
  0
LINE
  5
75
330
1F
100
AcDbEntity
  8
TFR-TRI
  6
Continuous
 62
     1
100
AcDbLine
 10
-135.1596412658691
 20
17.89445495605469
 30
0.0
 11
-94.21477127075196
 21
17.89445495605469
 31
0.0
  0
LINE
  5
76
330
1F
100
AcDbEntity
  8
TFR-TRI
  6
Continuous
 62
     1
100
AcDbLine
 10
-115.7895698547363
 20
19.91807556152344
 30
0.0
 11
-113.5848426818848
 21
19.91807556152344
 31
0.0
  0
LINE
  5
77
330
1F
100
AcDbEntity
  8
TFR-TRI
  6
Continuous
 62
     1
100
AcDbLine
 10
-112.561222076416
 20
18.46138000488281
 30
0.0
 11
-112.561222076416
 21
19.05192565917969
 31
0.0
  0
LINE
  5
78
330
1F
100
AcDbEntity
  8
TFR-TRI
  6
Continuous
 62
     1
100
AcDbLine
 10
-114.7757606506347
 20
19.64169311523437
 30
0.0
 11
-114.5985908508301
 21
19.64169311523437
 31
0.0
  0
LINE
  5
79
330
1F
100
AcDbEntity
  8
TFR-TRI
  6
Continuous
 62
     1
100
AcDbLine
 10
-114.5985908508301
 20
19.42515563964844
 30
0.0
 11
-114.7757606506347
 21
19.42515563964844
 31
0.0
  0
LINE
  5
7A
330
1F
100
AcDbEntity
  8
TFR-TRI
  6
Continuous
 62
     1
100
AcDbLine
 10
-115.7895698547363
 20
19.91807556152344
 30
0.0
 11
-115.8683052062988
 21
19.83934020996094
 31
0.0
  0
LINE
  5
7B
330
1F
100
AcDbEntity
  8
TFR-TRI
  6
Continuous
 62
     1
100
AcDbLine
 10
-115.8683052062988
 20
19.20941162109375
 30
0.0
 11
-115.8683052062988
 21
19.83934020996094
 31
0.0
  0
LINE
  5
7C
330
1F
100
AcDbEntity
  8
TFR-TRI
  6
Continuous
 62
     1
100
AcDbLine
 10
-115.8683052062988
 20
19.20941162109375
 30
0.0
 11
-115.9470558166504
 21
19.13067626953125
 31
0.0
  0
LINE
  5
7D
330
1F
100
AcDbEntity
  8
TFR-TRI
  6
Continuous
 62
     1
100
AcDbLine
 10
-116.7344551086425
 20
19.13067626953125
 30
0.0
 11
-115.9470558166504
 21
19.13067626953125
 31
0.0
  0
LINE
  5
7E
330
1F
100
AcDbEntity
  8
TFR-TRI
  6
Continuous
 62
     1
100
AcDbLine
 10
-116.7344551086425
 20
19.13067626953125
 30
0.0
 11
-116.8131904602051
 21
19.05192565917969
 31
0.0
  0
LINE
  5
7F
330
1F
100
AcDbEntity
  8
TFR-TRI
  6
Continuous
 62
     1
100
AcDbLine
 10
-116.8131904602051
 20
18.46138000488281
 30
0.0
 11
-116.8131904602051
 21
19.05192565917969
 31
0.0
  0
LINE
  5
80
330
1F
100
AcDbEntity
  8
TFR-TRI
  6
Continuous
 62
     1
100
AcDbLine
 10
-116.8131904602051
 20
18.46138000488281
 30
0.0
 11
-116.8919258117675
 21
18.46138000488281
 31
0.0
  0
LINE
  5
81
330
1F
100
AcDbEntity
  8
TFR-TRI
  6
Continuous
 62
     1
100
AcDbLine
 10
-116.8919258117675
 20
18.46138000488281
 30
0.0
 11
-132.0533485412597
 21
18.46138000488281
 31
0.0
  0
LINE
  5
82
330
1F
100
AcDbEntity
  8
TFR-TRI
  6
Continuous
 62
     1
100
AcDbLine
 10
-132.0533485412597
 20
18.46138000488281
 30
0.0
 11
-135.0809059143066
 21
18.46138000488281
 31
0.0
  0
LINE
  5
83
330
1F
100
AcDbEntity
  8
TFR-TRI
  6
Continuous
 62
     1
100
AcDbLine
 10
-135.0809059143066
 20
18.46138000488281
 30
0.0
 11
-135.1596412658691
 21
18.38264465332031
 31
0.0
  0
LINE
  5
84
330
1F
100
AcDbEntity
  8
TFR-TRI
  6
Continuous
 62
     1
100
AcDbLine
 10
-135.1596412658691
 20
17.98893737792969
 30
0.0
 11
-135.1596412658691
 21
18.38264465332031
 31
0.0
  0
LINE
  5
85
330
1F
100
AcDbEntity
  8
TFR-TRI
  6
Continuous
 62
     1
100
AcDbLine
 10
-135.1596412658691
 20
17.98893737792969
 30
0.0
 11
-94.21477127075196
 21
17.98893737792969
 31
0.0
  0
LINE
  5
86
330
1F
100
AcDbEntity
  8
TFR-TRI
  6
Continuous
 62
     1
100
AcDbLine
 10
-94.21477127075196
 20
17.98893737792969
 30
0.0
 11
-94.21477127075196
 21
18.38264465332031
 31
0.0
  0
LINE
  5
87
330
1F
100
AcDbEntity
  8
TFR-TRI
  6
Continuous
 62
     1
100
AcDbLine
 10
-94.21477127075196
 20
18.38264465332031
 30
0.0
 11
-94.29350662231446
 21
18.46138000488281
 31
0.0
  0
LINE
  5
88
330
1F
100
AcDbEntity
  8
TFR-TRI
  6
Continuous
 62
     1
100
AcDbLine
 10
-94.29350662231446
 20
18.46138000488281
 30
0.0
 11
-97.32106399536133
 21
18.46138000488281
 31
0.0
  0
LINE
  5
89
330
1F
100
AcDbEntity
  8
TFR-TRI
  6
Continuous
 62
     1
100
AcDbLine
 10
-112.4824867248535
 20
18.46138000488281
 30
0.0
 11
-97.32106399536133
 21
18.46138000488281
 31
0.0
  0
LINE
  5
8A
330
1F
100
AcDbEntity
  8
TFR-TRI
  6
Continuous
 62
     1
100
AcDbLine
 10
-112.4824867248535
 20
18.46138000488281
 30
0.0
 11
-112.561222076416
 21
18.46138000488281
 31
0.0
  0
LINE
  5
8B
330
1F
100
AcDbEntity
  8
TFR-TRI
  6
Continuous
 62
     1
100
AcDbLine
 10
-112.561222076416
 20
19.05192565917969
 30
0.0
 11
-112.6399574279785
 21
19.13067626953125
 31
0.0
  0
LINE
  5
8C
330
1F
100
AcDbEntity
  8
TFR-TRI
  6
Continuous
 62
     1
100
AcDbLine
 10
-112.6399574279785
 20
19.13067626953125
 30
0.0
 11
-113.4273719787597
 21
19.13067626953125
 31
0.0
  0
LINE
  5
8D
330
1F
100
AcDbEntity
  8
TFR-TRI
  6
Continuous
 62
     1
100
AcDbLine
 10
-113.4273719787597
 20
19.13067626953125
 30
0.0
 11
-113.5061073303222
 21
19.20941162109375
 31
0.0
  0
LINE
  5
8E
330
1F
100
AcDbEntity
  8
TFR-TRI
  6
Continuous
 62
     1
100
AcDbLine
 10
-113.5061073303222
 20
19.20941162109375
 30
0.0
 11
-113.5061073303222
 21
19.83934020996094
 31
0.0
  0
LINE
  5
8F
330
1F
100
AcDbEntity
  8
TFR-TRI
  6
Continuous
 62
     1
100
AcDbLine
 10
-113.5061073303222
 20
19.83934020996094
 30
0.0
 11
-113.5848426818848
 21
19.91807556152344
 31
0.0
  0
LINE
  5
90
330
1F
100
AcDbEntity
  8
TFR-TRI
  6
Continuous
 62
     1
100
AcDbLine
 10
-133.5395698547363
 20
18.32319641113281
 30
0.0
 11
-133.3624000549316
 21
18.32319641113281
 31
0.0
  0
LINE
  5
91
330
1F
100
AcDbEntity
  8
TFR-TRI
  6
Continuous
 62
     1
100
AcDbLine
 10
-133.3624000549316
 20
18.10665893554687
 30
0.0
 11
-133.5395698547363
 21
18.10665893554687
 31
0.0
  0
LINE
  5
92
330
1F
100
AcDbEntity
  8
TFR-TRI
  6
Continuous
 62
     1
100
AcDbLine
 10
-132.7521705627441
 20
18.32319641113281
 30
0.0
 11
-132.5750007629394
 21
18.32319641113281
 31
0.0
  0
LINE
  5
93
330
1F
100
AcDbEntity
  8
TFR-TRI
  6
Continuous
 62
     1
100
AcDbLine
 10
-132.5750007629394
 20
18.10665893554687
 30
0.0
 11
-132.7521705627441
 21
18.10665893554687
 31
0.0
  0
LINE
  5
94
330
1F
100
AcDbEntity
  8
TFR-TRI
  6
Continuous
 62
     1
100
AcDbLine
 10
-96.01201248168946
 20
18.10665893554687
 30
0.0
 11
-95.83484268188476
 21
18.10665893554687
 31
0.0
  0
LINE
  5
95
330
1F
100
AcDbEntity
  8
TFR-TRI
  6
Continuous
 62
     1
100
AcDbLine
 10
-95.83484268188476
 20
18.32319641113281
 30
0.0
 11
-96.01201248168946
 21
18.32319641113281
 31
0.0
  0
LINE
  5
96
330
1F
100
AcDbEntity
  8
TFR-TRI
  6
Continuous
 62
     1
100
AcDbLine
 10
-96.79941177368164
 20
18.10665893554687
 30
0.0
 11
-96.62224197387695
 21
18.10665893554687
 31
0.0
  0
LINE
  5
97
330
1F
100
AcDbEntity
  8
TFR-TRI
  6
Continuous
 62
     1
100
AcDbLine
 10
-96.62224197387695
 20
18.32319641113281
 30
0.0
 11
-96.79941177368164
 21
18.32319641113281
 31
0.0
  0
LINE
  5
98
330
1F
100
AcDbEntity
  8
TFR-TRI
  6
Continuous
 62
     1
100
AcDbLine
 10
-135.1596412658691
 20
17.98893737792969
 30
0.0
 11
-135.1596412658691
 21
17.92213439941406
 31
0.0
  0
LINE
  5
99
330
1F
100
AcDbEntity
  8
TFR-TRI
  6
Continuous
 62
     1
100
AcDbLine
 10
-135.1596412658691
 20
17.92213439941406
 30
0.0
 11
-135.1596412658691
 21
17.89445495605469
 31
0.0
  0
LINE
  5
9A
330
1F
100
AcDbEntity
  8
TFR-TRI
  6
Continuous
 62
     1
100
AcDbLine
 10
-94.21477127075196
 20
17.98893737792969
 30
0.0
 11
-94.21477127075196
 21
17.92213439941406
 31
0.0
  0
LINE
  5
9B
330
1F
100
AcDbEntity
  8
TFR-TRI
  6
Continuous
 62
     1
100
AcDbLine
 10
-94.21477127075196
 20
17.92213439941406
 30
0.0
 11
-94.21477127075196
 21
17.89445495605469
 31
0.0
  0
LINE
  5
9C
330
1F
100
AcDbEntity
  8
TFR-TRI
  6
Continuous
 62
     1
100
AcDbLine
 10
-116.8919258117675
 20
18.46138000488281
 30
0.0
 11
-116.8919258117675
 21
18.5281982421875
 31
0.0
  0
LINE
  5
9D
330
1F
100
AcDbEntity
  8
TFR-TRI
  6
Continuous
 62
     1
100
AcDbLine
 10
-116.8919258117675
 20
18.5281982421875
 30
0.0
 11
-116.8919258117675
 21
18.55586242675781
 31
0.0
  0
LINE
  5
9E
330
1F
100
AcDbEntity
  8
TFR-TRI
  6
Continuous
 62
     1
100
AcDbLine
 10
-132.0533485412597
 20
18.46138000488281
 30
0.0
 11
-132.0533485412597
 21
18.5281982421875
 31
0.0
  0
LINE
  5
9F
330
1F
100
AcDbEntity
  8
TFR-TRI
  6
Continuous
 62
     1
100
AcDbLine
 10
-132.0533485412597
 20
18.5281982421875
 30
0.0
 11
-132.0533485412597
 21
18.55586242675781
 31
0.0
  0
LINE
  5
A0
330
1F
100
AcDbEntity
  8
TFR-TRI
  6
Continuous
 62
     1
100
AcDbLine
 10
-116.8919258117675
 20
18.55586242675781
 30
0.0
 11
-132.0533485412597
 21
18.55586242675781
 31
0.0
  0
LINE
  5
A1
330
1F
100
AcDbEntity
  8
TFR-TRI
  6
Continuous
 62
     1
100
AcDbLine
 10
-112.4824867248535
 20
18.46138000488281
 30
0.0
 11
-112.4824867248535
 21
18.5281982421875
 31
0.0
  0
LINE
  5
A2
330
1F
100
AcDbEntity
  8
TFR-TRI
  6
Continuous
 62
     1
100
AcDbLine
 10
-112.4824867248535
 20
18.5281982421875
 30
0.0
 11
-112.4824867248535
 21
18.55586242675781
 31
0.0
  0
LINE
  5
A3
330
1F
100
AcDbEntity
  8
TFR-TRI
  6
Continuous
 62
     1
100
AcDbLine
 10
-97.32106399536133
 20
18.46138000488281
 30
0.0
 11
-97.32106399536133
 21
18.5281982421875
 31
0.0
  0
LINE
  5
A4
330
1F
100
AcDbEntity
  8
TFR-TRI
  6
Continuous
 62
     1
100
AcDbLine
 10
-97.32106399536133
 20
18.5281982421875
 30
0.0
 11
-97.32106399536133
 21
18.55586242675781
 31
0.0
  0
LINE
  5
A5
330
1F
100
AcDbEntity
  8
TFR-TRI
  6
Continuous
 62
     1
100
AcDbLine
 10
-112.4824867248535
 20
18.55586242675781
 30
0.0
 11
-97.32106399536133
 21
18.55586242675781
 31
0.0
  0
LINE
  5
A6
330
1F
100
AcDbEntity
  8
TFR-TRI
  6
Continuous
 62
   251
100
AcDbLine
 10
-94.21477127075196
 20
16.10508728027344
 30
0.0
 11
-94.21477127075196
 21
17.69619750976562
 31
0.0
  0
LINE
  5
A7
330
1F
100
AcDbEntity
  8
TFR-TRI
  6
Continuous
 62
   251
100
AcDbLine
 10
-135.1596412658691
 20
17.69619750976562
 30
0.0
 11
-94.21477127075196
 21
17.69619750976562
 31
0.0
  0
LINE
  5
A8
330
1F
100
AcDbEntity
  8
TFR-TRI
  6
Continuous
 62
   251
100
AcDbLine
 10
-135.1596412658691
 20
16.10508728027344
 30
0.0
 11
-135.1596412658691
 21
17.69619750976562
 31
0.0
  0
LINE
  5
A9
330
1F
100
AcDbEntity
  8
TFR-TRI
  6
Continuous
 62
   251
100
AcDbLine
 10
-135.1596412658691
 20
16.10508728027344
 30
0.0
 11
-94.21477127075196
 21
16.10508728027344
 31
0.0
  0
LINE
  5
AA
330
1F
100
AcDbEntity
  8
TFR-TRI
  6
Continuous
 62
   251
100
AcDbLine
 10
-94.21477127075196
 20
17.69619750976562
 30
0.0
 11
-94.21477127075196
 21
17.83540344238281
 31
0.0
  0
LINE
  5
AB
330
1F
100
AcDbEntity
  8
TFR-TRI
  6
Continuous
 62
   251
100
AcDbLine
 10
-135.1596412658691
 20
17.83540344238281
 30
0.0
 11
-94.21477127075196
 21
17.83540344238281
 31
0.0
  0
LINE
  5
AC
330
1F
100
AcDbEntity
  8
TFR-TRI
  6
Continuous
 62
   251
100
AcDbLine
 10
-135.1596412658691
 20
17.69619750976562
 30
0.0
 11
-135.1596412658691
 21
17.83540344238281
 31
0.0
  0
LINE
  5
AD
330
1F
100
AcDbEntity
  8
TFR-TRI
  6
Continuous
 62
   251
100
AcDbLine
 10
-94.21477127075196
 20
17.83540344238281
 30
0.0
 11
-94.21477127075196
 21
17.85508728027344
 31
0.0
  0
LINE
  5
AE
330
1F
100
AcDbEntity
  8
TFR-TRI
  6
Continuous
 62
   251
100
AcDbLine
 10
-135.1596412658691
 20
17.83540344238281
 30
0.0
 11
-135.1596412658691
 21
17.85508728027344
 31
0.0
  0
LINE
  5
AF
330
1F
100
AcDbEntity
  8
TFR-TRI
  6
Continuous
 62
   251
100
AcDbLine
 10
-135.1596412658691
 20
17.85508728027344
 30
0.0
 11
-94.21477127075196
 21
17.85508728027344
 31
0.0
  0
LINE
  5
B0
330
1F
100
AcDbEntity
  8
TFR-TRI
  6
Continuous
 62
   251
100
AcDbLine
 10
-94.21477127075196
 20
17.85508728027344
 30
0.0
 11
-94.21477127075196
 21
17.89445495605469
 31
0.0
  0
LINE
  5
B1
330
1F
100
AcDbEntity
  8
TFR-TRI
  6
Continuous
 62
   251
100
AcDbLine
 10
-135.1596412658691
 20
17.85508728027344
 30
0.0
 11
-135.1596412658691
 21
17.89445495605469
 31
0.0
  0
LINE
  5
B2
330
1F
100
AcDbEntity
  8
TFR-TRI
  6
Continuous
 62
   251
100
AcDbLine
 10
-94.21477127075196
 20
72.04081726074218
 30
0.0
 11
-135.1596412658691
 21
72.04081726074218
 31
0.0
  0
LINE
  5
B3
330
1F
100
AcDbEntity
  8
TFR-TRI
  6
Continuous
 62
     1
100
AcDbLine
 10
-135.1596412658691
 20
71.47735595703125
 30
0.0
 11
-135.1596412658691
 21
71.48081970214843
 31
0.0
  0
LINE
  5
B4
330
1F
100
AcDbEntity
  8
TFR-TRI
  6
Continuous
 62
     1
100
AcDbLine
 10
-94.21477127075196
 20
71.47735595703125
 30
0.0
 11
-97.32146072387696
 21
71.47735595703125
 31
0.0
  0
LINE
  5
B5
330
1F
100
AcDbEntity
  8
TFR-TRI
  6
Continuous
 62
     1
100
AcDbLine
 10
-112.4825782775879
 20
71.47735595703125
 30
0.0
 11
-116.8918342590332
 21
71.47735595703125
 31
0.0
  0
LINE
  5
B6
330
1F
100
AcDbEntity
  8
TFR-TRI
  6
Continuous
 62
     1
100
AcDbLine
 10
-132.0529518127441
 20
71.47735595703125
 30
0.0
 11
-135.1596412658691
 21
71.47735595703125
 31
0.0
  0
LINE
  5
B7
330
1F
100
AcDbEntity
  8
TFR-TRI
  6
Continuous
 62
     1
100
AcDbLine
 10
-94.21477127075196
 20
71.47735595703125
 30
0.0
 11
-94.21477127075196
 21
71.48081970214843
 31
0.0
  0
LINE
  5
B8
330
1F
100
AcDbEntity
  8
TFR-TRI
  6
Continuous
 62
     1
100
AcDbLine
 10
-128.1950874328613
 20
71.87104797363281
 30
0.0
 11
-131.9746131896972
 21
71.87104797363281
 31
0.0
  0
LINE
  5
B9
330
1F
100
AcDbEntity
  8
TFR-TRI
  6
Continuous
 62
     1
100
AcDbLine
 10
-112.4037361145019
 20
71.87104797363281
 30
0.0
 11
-103.3053169250488
 21
71.87104797363281
 31
0.0
  0
LINE
  5
BA
330
1F
100
AcDbEntity
  8
TFR-TRI
  6
Continuous
 62
     1
100
AcDbLine
 10
-101.1793403625488
 20
71.87104797363281
 30
0.0
 11
-97.39979934692383
 21
71.87104797363281
 31
0.0
  0
LINE
  5
BB
330
1F
100
AcDbEntity
  8
TFR-TRI
  6
Continuous
 62
     1
100
AcDbLine
 10
-115.7895698547363
 20
71.44586181640625
 30
0.0
 11
-113.5848426818848
 21
71.44586181640625
 31
0.0
  0
LINE
  5
BC
330
1F
100
AcDbEntity
  8
TFR-TRI
  6
Continuous
 62
     1
100
AcDbLine
 10
-115.7895698547363
 20
71.44586181640625
 30
0.0
 11
-115.7895698547363
 21
71.38285827636718
 31
0.0
  0
LINE
  5
BD
330
1F
100
AcDbEntity
  8
TFR-TRI
  6
Continuous
 62
     1
100
AcDbLine
 10
-115.7895698547363
 20
71.38285827636718
 30
0.0
 11
-113.5848426818848
 21
71.38285827636718
 31
0.0
  0
LINE
  5
BE
330
1F
100
AcDbEntity
  8
TFR-TRI
  6
Continuous
 62
     1
100
AcDbLine
 10
-113.5848426818848
 20
71.38285827636718
 30
0.0
 11
-113.5848426818848
 21
71.44586181640625
 31
0.0
  0
LINE
  5
BF
330
1F
100
AcDbEntity
  8
TFR-TRI
  6
Continuous
 62
     1
100
AcDbLine
 10
-112.561222076416
 20
71.44586181640625
 30
0.0
 11
-112.561222076416
 21
71.38285827636718
 31
0.0
  0
LINE
  5
C0
330
1F
100
AcDbEntity
  8
TFR-TRI
  6
Continuous
 62
     1
100
AcDbLine
 10
-115.8683052062988
 20
71.44586181640625
 30
0.0
 11
-115.7895698547363
 21
71.44586181640625
 31
0.0
  0
LINE
  5
C1
330
1F
100
AcDbEntity
  8
TFR-TRI
  6
Continuous
 62
     1
100
AcDbLine
 10
-113.5848426818848
 20
71.44586181640625
 30
0.0
 11
-113.5061073303222
 21
71.44586181640625
 31
0.0
  0
LINE
  5
C2
330
1F
100
AcDbEntity
  8
TFR-TRI
  6
Continuous
 62
     1
100
AcDbLine
 10
-113.5061073303222
 20
71.44586181640625
 30
0.0
 11
-113.4273719787597
 21
71.44586181640625
 31
0.0
  0
LINE
  5
C3
330
1F
100
AcDbEntity
  8
TFR-TRI
  6
Continuous
 62
     1
100
AcDbLine
 10
-112.6399574279785
 20
71.44586181640625
 30
0.0
 11
-113.4273719787597
 21
71.44586181640625
 31
0.0
  0
LINE
  5
C4
330
1F
100
AcDbEntity
  8
TFR-TRI
  6
Continuous
 62
     1
100
AcDbLine
 10
-112.6399574279785
 20
71.44586181640625
 30
0.0
 11
-112.561222076416
 21
71.44586181640625
 31
0.0
  0
LINE
  5
C5
330
1F
100
AcDbEntity
  8
TFR-TRI
  6
Continuous
 62
     1
100
AcDbLine
 10
-112.561222076416
 20
71.44586181640625
 30
0.0
 11
-112.4824867248535
 21
71.44586181640625
 31
0.0
  0
LINE
  5
C6
330
1F
100
AcDbEntity
  8
TFR-TRI
  6
Continuous
 62
     1
100
AcDbLine
 10
-97.32106399536133
 20
71.44586181640625
 30
0.0
 11
-94.29350662231446
 21
71.44586181640625
 31
0.0
  0
LINE
  5
C7
330
1F
100
AcDbEntity
  8
TFR-TRI
  6
Continuous
 62
     1
100
AcDbLine
 10
-94.29350662231446
 20
71.44586181640625
 30
0.0
 11
-94.21477127075196
 21
71.44586181640625
 31
0.0
  0
LINE
  5
C8
330
1F
100
AcDbEntity
  8
TFR-TRI
  6
Continuous
 62
     1
100
AcDbLine
 10
-135.1596412658691
 20
71.44586181640625
 30
0.0
 11
-135.0809059143066
 21
71.44586181640625
 31
0.0
  0
LINE
  5
C9
330
1F
100
AcDbEntity
  8
TFR-TRI
  6
Continuous
 62
     1
100
AcDbLine
 10
-135.0809059143066
 20
71.44586181640625
 30
0.0
 11
-132.0533485412597
 21
71.44586181640625
 31
0.0
  0
LINE
  5
CA
330
1F
100
AcDbEntity
  8
TFR-TRI
  6
Continuous
 62
     1
100
AcDbLine
 10
-116.8919258117675
 20
71.44586181640625
 30
0.0
 11
-116.8131904602051
 21
71.44586181640625
 31
0.0
  0
LINE
  5
CB
330
1F
100
AcDbEntity
  8
TFR-TRI
  6
Continuous
 62
     1
100
AcDbLine
 10
-116.8131904602051
 20
71.44586181640625
 30
0.0
 11
-116.7344551086425
 21
71.44586181640625
 31
0.0
  0
LINE
  5
CC
330
1F
100
AcDbEntity
  8
TFR-TRI
  6
Continuous
 62
     1
100
AcDbLine
 10
-116.7344551086425
 20
71.44586181640625
 30
0.0
 11
-115.9470558166504
 21
71.44586181640625
 31
0.0
  0
LINE
  5
CD
330
1F
100
AcDbEntity
  8
TFR-TRI
  6
Continuous
 62
     1
100
AcDbLine
 10
-115.9470558166504
 20
71.44586181640625
 30
0.0
 11
-115.8683052062988
 21
71.44586181640625
 31
0.0
  0
LINE
  5
CE
330
1F
100
AcDbEntity
  8
TFR-TRI
  6
Continuous
 62
     1
100
AcDbLine
 10
-115.7895698547363
 20
71.38285827636718
 30
0.0
 11
-115.8683052062988
 21
71.38285827636718
 31
0.0
  0
LINE
  5
CF
330
1F
100
AcDbEntity
  8
TFR-TRI
  6
Continuous
 62
     1
100
AcDbLine
 10
-115.8683052062988
 20
71.38285827636718
 30
0.0
 11
-115.9470558166504
 21
71.38285827636718
 31
0.0
  0
LINE
  5
D0
330
1F
100
AcDbEntity
  8
TFR-TRI
  6
Continuous
 62
     1
100
AcDbLine
 10
-116.7344551086425
 20
71.38285827636718
 30
0.0
 11
-115.9470558166504
 21
71.38285827636718
 31
0.0
  0
LINE
  5
D1
330
1F
100
AcDbEntity
  8
TFR-TRI
  6
Continuous
 62
     1
100
AcDbLine
 10
-116.7344551086425
 20
71.38285827636718
 30
0.0
 11
-116.8131904602051
 21
71.38285827636718
 31
0.0
  0
LINE
  5
D2
330
1F
100
AcDbEntity
  8
TFR-TRI
  6
Continuous
 62
     1
100
AcDbLine
 10
-116.8131904602051
 20
71.38285827636718
 30
0.0
 11
-116.8919258117675
 21
71.38285827636718
 31
0.0
  0
LINE
  5
D3
330
1F
100
AcDbEntity
  8
TFR-TRI
  6
Continuous
 62
     1
100
AcDbLine
 10
-116.8919258117675
 20
71.38285827636718
 30
0.0
 11
-132.0533485412597
 21
71.38285827636718
 31
0.0
  0
LINE
  5
D4
330
1F
100
AcDbEntity
  8
TFR-TRI
  6
Continuous
 62
     1
100
AcDbLine
 10
-132.0533485412597
 20
71.38285827636718
 30
0.0
 11
-135.0809059143066
 21
71.38285827636718
 31
0.0
  0
LINE
  5
D5
330
1F
100
AcDbEntity
  8
TFR-TRI
  6
Continuous
 62
     1
100
AcDbLine
 10
-135.0809059143066
 20
71.38285827636718
 30
0.0
 11
-135.1596412658691
 21
71.38285827636718
 31
0.0
  0
LINE
  5
D6
330
1F
100
AcDbEntity
  8
TFR-TRI
  6
Continuous
 62
     1
100
AcDbLine
 10
-94.21477127075196
 20
71.38285827636718
 30
0.0
 11
-94.29350662231446
 21
71.38285827636718
 31
0.0
  0
LINE
  5
D7
330
1F
100
AcDbEntity
  8
TFR-TRI
  6
Continuous
 62
     1
100
AcDbLine
 10
-94.29350662231446
 20
71.38285827636718
 30
0.0
 11
-97.32106399536133
 21
71.38285827636718
 31
0.0
  0
LINE
  5
D8
330
1F
100
AcDbEntity
  8
TFR-TRI
  6
Continuous
 62
     1
100
AcDbLine
 10
-112.4824867248535
 20
71.38285827636718
 30
0.0
 11
-97.32106399536133
 21
71.38285827636718
 31
0.0
  0
LINE
  5
D9
330
1F
100
AcDbEntity
  8
TFR-TRI
  6
Continuous
 62
     1
100
AcDbLine
 10
-112.4824867248535
 20
71.38285827636718
 30
0.0
 11
-112.561222076416
 21
71.38285827636718
 31
0.0
  0
LINE
  5
DA
330
1F
100
AcDbEntity
  8
TFR-TRI
  6
Continuous
 62
     1
100
AcDbLine
 10
-112.561222076416
 20
71.38285827636718
 30
0.0
 11
-112.6399574279785
 21
71.38285827636718
 31
0.0
  0
LINE
  5
DB
330
1F
100
AcDbEntity
  8
TFR-TRI
  6
Continuous
 62
     1
100
AcDbLine
 10
-112.6399574279785
 20
71.38285827636718
 30
0.0
 11
-113.4273719787597
 21
71.38285827636718
 31
0.0
  0
LINE
  5
DC
330
1F
100
AcDbEntity
  8
TFR-TRI
  6
Continuous
 62
     1
100
AcDbLine
 10
-113.4273719787597
 20
71.38285827636718
 30
0.0
 11
-113.5061073303222
 21
71.38285827636718
 31
0.0
  0
LINE
  5
DD
330
1F
100
AcDbEntity
  8
TFR-TRI
  6
Continuous
 62
     1
100
AcDbLine
 10
-113.5061073303222
 20
71.38285827636718
 30
0.0
 11
-113.5848426818848
 21
71.38285827636718
 31
0.0
  0
LINE
  5
DE
330
1F
100
AcDbEntity
  8
TFR-TRI
  6
Continuous
 62
     1
100
AcDbLine
 10
-116.8131904602051
 20
71.38285827636718
 30
0.0
 11
-116.8131904602051
 21
71.44586181640625
 31
0.0
  0
LINE
  5
DF
330
1F
100
AcDbEntity
  8
TFR-TRI
  6
Continuous
 62
     1
100
AcDbLine
 10
-94.29350662231446
 20
71.38285827636718
 30
0.0
 11
-94.29350662231446
 21
71.44586181640625
 31
0.0
  0
LINE
  5
E0
330
1F
100
AcDbEntity
  8
TFR-TRI
  6
Continuous
 62
     1
100
AcDbLine
 10
-135.0809059143066
 20
71.44586181640625
 30
0.0
 11
-135.0809059143066
 21
71.38285827636718
 31
0.0
  0
LINE
  5
E1
330
1F
100
AcDbEntity
  8
TFR-TRI
  6
Continuous
 62
     1
100
AcDbLine
 10
-135.1596412658691
 20
71.38285827636718
 30
0.0
 11
-135.1596412658691
 21
71.44586181640625
 31
0.0
  0
LINE
  5
E2
330
1F
100
AcDbEntity
  8
TFR-TRI
  6
Continuous
 62
     1
100
AcDbLine
 10
-94.21477127075196
 20
71.44586181640625
 30
0.0
 11
-94.21477127075196
 21
71.38285827636718
 31
0.0
  0
LINE
  5
E3
330
1F
100
AcDbEntity
  8
TFR-TRI
  6
Continuous
 62
     1
100
AcDbLine
 10
-135.1596412658691
 20
71.44586181640625
 30
0.0
 11
-135.1596412658691
 21
71.455078125
 31
0.0
  0
LINE
  5
E4
330
1F
100
AcDbEntity
  8
TFR-TRI
  6
Continuous
 62
     1
100
AcDbLine
 10
-135.1596412658691
 20
71.455078125
 30
0.0
 11
-135.1596412658691
 21
71.47735595703125
 31
0.0
  0
LINE
  5
E5
330
1F
100
AcDbEntity
  8
TFR-TRI
  6
Continuous
 62
     1
100
AcDbLine
 10
-94.21477127075196
 20
71.44586181640625
 30
0.0
 11
-94.21477127075196
 21
71.455078125
 31
0.0
  0
LINE
  5
E6
330
1F
100
AcDbEntity
  8
TFR-TRI
  6
Continuous
 62
     1
100
AcDbLine
 10
-94.21477127075196
 20
71.455078125
 30
0.0
 11
-94.21477127075196
 21
71.47735595703125
 31
0.0
  0
LINE
  5
E7
330
1F
100
AcDbEntity
  8
TFR-TRI
  6
Continuous
 62
     1
100
AcDbLine
 10
-116.8919258117675
 20
71.38285827636718
 30
0.0
 11
-116.8919258117675
 21
71.41053771972656
 31
0.0
  0
LINE
  5
E8
330
1F
100
AcDbEntity
  8
TFR-TRI
  6
Continuous
 62
     1
100
AcDbLine
 10
-116.8919258117675
 20
71.41053771972656
 30
0.0
 11
-116.8919258117675
 21
71.47735595703125
 31
0.0
  0
LINE
  5
E9
330
1F
100
AcDbEntity
  8
TFR-TRI
  6
Continuous
 62
     1
100
AcDbLine
 10
-132.0533485412597
 20
71.38285827636718
 30
0.0
 11
-132.0533485412597
 21
71.41053771972656
 31
0.0
  0
LINE
  5
EA
330
1F
100
AcDbEntity
  8
TFR-TRI
  6
Continuous
 62
     1
100
AcDbLine
 10
-132.0533485412597
 20
71.41053771972656
 30
0.0
 11
-132.0533485412597
 21
71.47735595703125
 31
0.0
  0
LINE
  5
EB
330
1F
100
AcDbEntity
  8
TFR-TRI
  6
Continuous
 62
     1
100
AcDbLine
 10
-116.8919258117675
 20
71.47735595703125
 30
0.0
 11
-132.0533485412597
 21
71.47735595703125
 31
0.0
  0
LINE
  5
EC
330
1F
100
AcDbEntity
  8
TFR-TRI
  6
Continuous
 62
     1
100
AcDbLine
 10
-116.8919258117675
 20
71.47735595703125
 30
0.0
 11
-116.8919258117675
 21
71.79231262207031
 31
0.0
  0
LINE
  5
ED
330
1F
100
AcDbEntity
  8
TFR-TRI
  6
Continuous
 62
     1
100
AcDbLine
 10
-132.0533485412597
 20
71.47735595703125
 30
0.0
 11
-132.0533485412597
 21
71.79231262207031
 31
0.0
  0
LINE
  5
EE
330
1F
100
AcDbEntity
  8
TFR-TRI
  6
Continuous
 62
     1
100
AcDbLine
 10
-131.9746131896972
 20
71.87104797363281
 30
0.0
 11
-132.0533485412597
 21
71.79231262207031
 31
0.0
  0
LINE
  5
EF
330
1F
100
AcDbEntity
  8
TFR-TRI
  6
Continuous
 62
     1
100
AcDbLine
 10
-116.8919258117675
 20
71.79231262207031
 30
0.0
 11
-116.9706764221191
 21
71.87104797363281
 31
0.0
  0
LINE
  5
F0
330
1F
100
AcDbEntity
  8
TFR-TRI
  6
Continuous
 62
     1
100
AcDbLine
 10
-116.9706764221191
 20
71.87104797363281
 30
0.0
 11
-126.0690956115722
 21
71.87104797363281
 31
0.0
  0
LINE
  5
F1
330
1F
100
AcDbEntity
  8
TFR-TRI
  6
Continuous
 62
     1
100
AcDbLine
 10
-126.0690956115722
 20
71.87104797363281
 30
0.0
 11
-126.1478309631347
 21
71.79231262207031
 31
0.0
  0
LINE
  5
F2
330
1F
100
AcDbEntity
  8
TFR-TRI
  6
Continuous
 62
     1
100
AcDbLine
 10
-126.1478309631347
 20
71.75294494628906
 30
0.0
 11
-126.1478309631347
 21
71.79231262207031
 31
0.0
  0
LINE
  5
F3
330
1F
100
AcDbEntity
  8
TFR-TRI
  6
Continuous
 62
     1
100
AcDbLine
 10
-128.1163368225097
 20
71.75294494628906
 30
0.0
 11
-126.1478309631347
 21
71.75294494628906
 31
0.0
  0
LINE
  5
F4
330
1F
100
AcDbEntity
  8
TFR-TRI
  6
Continuous
 62
     1
100
AcDbLine
 10
-128.1163368225097
 20
71.79231262207031
 30
0.0
 11
-128.1163368225097
 21
71.75294494628906
 31
0.0
  0
LINE
  5
F5
330
1F
100
AcDbEntity
  8
TFR-TRI
  6
Continuous
 62
     1
100
AcDbLine
 10
-128.1163368225097
 20
71.79231262207031
 30
0.0
 11
-128.1950874328613
 21
71.87104797363281
 31
0.0
  0
LINE
  5
F6
330
1F
100
AcDbEntity
  8
TFR-TRI
  6
Continuous
 62
     1
100
AcDbLine
 10
-112.4824867248535
 20
71.38285827636718
 30
0.0
 11
-112.4824867248535
 21
71.41053771972656
 31
0.0
  0
LINE
  5
F7
330
1F
100
AcDbEntity
  8
TFR-TRI
  6
Continuous
 62
     1
100
AcDbLine
 10
-112.4824867248535
 20
71.41053771972656
 30
0.0
 11
-112.4824867248535
 21
71.47735595703125
 31
0.0
  0
LINE
  5
F8
330
1F
100
AcDbEntity
  8
TFR-TRI
  6
Continuous
 62
     1
100
AcDbLine
 10
-97.32106399536133
 20
71.38285827636718
 30
0.0
 11
-97.32106399536133
 21
71.41053771972656
 31
0.0
  0
LINE
  5
F9
330
1F
100
AcDbEntity
  8
TFR-TRI
  6
Continuous
 62
     1
100
AcDbLine
 10
-97.32106399536133
 20
71.41053771972656
 30
0.0
 11
-97.32106399536133
 21
71.47735595703125
 31
0.0
  0
LINE
  5
FA
330
1F
100
AcDbEntity
  8
TFR-TRI
  6
Continuous
 62
     1
100
AcDbLine
 10
-112.4824867248535
 20
71.47735595703125
 30
0.0
 11
-97.32106399536133
 21
71.47735595703125
 31
0.0
  0
LINE
  5
FB
330
1F
100
AcDbEntity
  8
TFR-TRI
  6
Continuous
 62
     1
100
AcDbLine
 10
-112.4824867248535
 20
71.47735595703125
 30
0.0
 11
-112.4824867248535
 21
71.79231262207031
 31
0.0
  0
LINE
  5
FC
330
1F
100
AcDbEntity
  8
TFR-TRI
  6
Continuous
 62
     1
100
AcDbLine
 10
-97.32106399536133
 20
71.47735595703125
 30
0.0
 11
-97.32106399536133
 21
71.79231262207031
 31
0.0
  0
LINE
  5
FD
330
1F
100
AcDbEntity
  8
TFR-TRI
  6
Continuous
 62
     1
100
AcDbLine
 10
-97.32106399536133
 20
71.79231262207031
 30
0.0
 11
-97.39979934692383
 21
71.87104797363281
 31
0.0
  0
LINE
  5
FE
330
1F
100
AcDbEntity
  8
TFR-TRI
  6
Continuous
 62
     1
100
AcDbLine
 10
-101.1793403625488
 20
71.87104797363281
 30
0.0
 11
-101.2580757141113
 21
71.79231262207031
 31
0.0
  0
LINE
  5
FF
330
1F
100
AcDbEntity
  8
TFR-TRI
  6
Continuous
 62
     1
100
AcDbLine
 10
-101.2580757141113
 20
71.75294494628906
 30
0.0
 11
-101.2580757141113
 21
71.79231262207031
 31
0.0
  0
LINE
  5
100
330
1F
100
AcDbEntity
  8
TFR-TRI
  6
Continuous
 62
     1
100
AcDbLine
 10
-103.2265815734863
 20
71.75294494628906
 30
0.0
 11
-101.2580757141113
 21
71.75294494628906
 31
0.0
  0
LINE
  5
101
330
1F
100
AcDbEntity
  8
TFR-TRI
  6
Continuous
 62
     1
100
AcDbLine
 10
-103.2265815734863
 20
71.79231262207031
 30
0.0
 11
-103.2265815734863
 21
71.75294494628906
 31
0.0
  0
LINE
  5
102
330
1F
100
AcDbEntity
  8
TFR-TRI
  6
Continuous
 62
     1
100
AcDbLine
 10
-103.2265815734863
 20
71.79231262207031
 30
0.0
 11
-103.3053169250488
 21
71.87104797363281
 31
0.0
  0
LINE
  5
103
330
1F
100
AcDbEntity
  8
TFR-TRI
  6
Continuous
 62
     1
100
AcDbLine
 10
-112.4037361145019
 20
71.87104797363281
 30
0.0
 11
-112.4824867248535
 21
71.79231262207031
 31
0.0
  0
LINE
  5
104
330
1F
100
AcDbEntity
  8
TFR-TRI
  6
Continuous
 62
     1
100
AcDbLine
 10
-115.8683052062988
 20
71.38285827636718
 30
0.0
 11
-115.8683052062988
 21
71.44586181640625
 31
0.0
  0
LINE
  5
105
330
1F
100
AcDbEntity
  8
TFR-TRI
  6
Continuous
 62
     1
100
AcDbLine
 10
-116.7344551086425
 20
71.44586181640625
 30
0.0
 11
-116.7344551086425
 21
71.38285827636718
 31
0.0
  0
LINE
  5
106
330
1F
100
AcDbEntity
  8
TFR-TRI
  6
Continuous
 62
     1
100
AcDbLine
 10
-115.9470558166504
 20
71.38285827636718
 30
0.0
 11
-115.9470558166504
 21
71.44586181640625
 31
0.0
  0
LINE
  5
107
330
1F
100
AcDbEntity
  8
TFR-TRI
  6
Continuous
 62
     1
100
AcDbLine
 10
-113.5061073303222
 20
71.44586181640625
 30
0.0
 11
-113.5061073303222
 21
71.38285827636718
 31
0.0
  0
LINE
  5
108
330
1F
100
AcDbEntity
  8
TFR-TRI
  6
Continuous
 62
     1
100
AcDbLine
 10
-113.4273719787597
 20
71.44586181640625
 30
0.0
 11
-113.4273719787597
 21
71.38285827636718
 31
0.0
  0
LINE
  5
109
330
1F
100
AcDbEntity
  8
TFR-TRI
  6
Continuous
 62
     1
100
AcDbLine
 10
-112.6399574279785
 20
71.38285827636718
 30
0.0
 11
-112.6399574279785
 21
71.44586181640625
 31
0.0
  0
LINE
  5
10A
330
1F
100
AcDbEntity
  8
TFR-TRI
  6
Continuous
 62
   251
100
AcDbLine
 10
-135.1596412658691
 20
71.48081970214843
 30
0.0
 11
-132.0529518127441
 21
71.48081970214843
 31
0.0
  0
LINE
  5
10B
330
1F
100
AcDbEntity
  8
TFR-TRI
  6
Continuous
 62
   251
100
AcDbLine
 10
-116.8918342590332
 20
71.48081970214843
 30
0.0
 11
-112.4825782775879
 21
71.48081970214843
 31
0.0
  0
LINE
  5
10C
330
1F
100
AcDbEntity
  8
TFR-TRI
  6
Continuous
 62
   251
100
AcDbLine
 10
-97.32146072387696
 20
71.48081970214843
 30
0.0
 11
-94.21477127075196
 21
71.48081970214843
 31
0.0
  0
LINE
  5
10D
330
1F
100
AcDbEntity
  8
TFR-TRI
  6
Continuous
 62
   251
100
AcDbLine
 10
-94.21477127075196
 20
71.48081970214843
 30
0.0
 11
-94.21477127075196
 21
71.97123718261718
 31
0.0
  0
LINE
  5
10E
330
1F
100
AcDbEntity
  8
TFR-TRI
  6
Continuous
 62
   251
100
AcDbLine
 10
-135.1596412658691
 20
71.97123718261718
 30
0.0
 11
-94.21477127075196
 21
71.97123718261718
 31
0.0
  0
LINE
  5
10F
330
1F
100
AcDbEntity
  8
TFR-TRI
  6
Continuous
 62
   251
100
AcDbLine
 10
-135.1596412658691
 20
71.48081970214843
 30
0.0
 11
-135.1596412658691
 21
71.97123718261718
 31
0.0
  0
LINE
  5
110
330
1F
100
AcDbEntity
  8
TFR-TRI
  6
Continuous
 62
   251
100
AcDbLine
 10
-94.21477127075196
 20
71.97123718261718
 30
0.0
 11
-94.21477127075196
 21
72.02044677734375
 31
0.0
  0
LINE
  5
111
330
1F
100
AcDbEntity
  8
TFR-TRI
  6
Continuous
 62
   251
100
AcDbLine
 10
-94.21477127075196
 20
72.02044677734375
 30
0.0
 11
-94.21477127075196
 21
72.04081726074218
 31
0.0
  0
LINE
  5
112
330
1F
100
AcDbEntity
  8
TFR-TRI
  6
Continuous
 62
   251
100
AcDbLine
 10
-135.1596412658691
 20
71.97123718261718
 30
0.0
 11
-135.1596412658691
 21
72.02044677734375
 31
0.0
  0
LINE
  5
113
330
1F
100
AcDbEntity
  8
TFR-TRI
  6
Continuous
 62
   251
100
AcDbLine
 10
-135.1596412658691
 20
72.02044677734375
 30
0.0
 11
-135.1596412658691
 21
72.04081726074218
 31
0.0
  0
LINE
  5
114
330
1F
100
AcDbEntity
  8
TFR-TRI
  6
Continuous
 62
   251
100
AcDbLine
 10
-135.1596412658691
 20
-28.29365539550781
 30
0.0
 11
-94.21477127075196
 21
-28.29365539550781
 31
0.0
  0
LINE
  5
115
330
1F
100
AcDbEntity
  8
TFR-TRI
  6
Continuous
 62
     1
100
AcDbLine
 10
-94.21477127075196
 20
-27.73018646240235
 30
0.0
 11
-94.21477127075196
 21
-27.73365020751953
 31
0.0
  0
LINE
  5
116
330
1F
100
AcDbEntity
  8
TFR-TRI
  6
Continuous
 62
     1
100
AcDbLine
 10
-135.1596412658691
 20
-27.73018646240235
 30
0.0
 11
-94.21477127075196
 21
-27.73018646240235
 31
0.0
  0
LINE
  5
117
330
1F
100
AcDbEntity
  8
TFR-TRI
  6
Continuous
 62
     1
100
AcDbLine
 10
-135.1596412658691
 20
-27.73018646240235
 30
0.0
 11
-135.1596412658691
 21
-27.73365020751953
 31
0.0
  0
LINE
  5
118
330
1F
100
AcDbEntity
  8
TFR-TRI
  6
Continuous
 62
     1
100
AcDbLine
 10
-135.1596412658691
 20
-27.63569641113281
 30
0.0
 11
-94.21477127075196
 21
-27.63569641113281
 31
0.0
  0
LINE
  5
119
330
1F
100
AcDbEntity
  8
TFR-TRI
  6
Continuous
 62
     1
100
AcDbLine
 10
-135.1596412658691
 20
-27.63569641113281
 30
0.0
 11
-135.1596412658691
 21
-27.66337585449219
 31
0.0
  0
LINE
  5
11A
330
1F
100
AcDbEntity
  8
TFR-TRI
  6
Continuous
 62
     1
100
AcDbLine
 10
-135.1596412658691
 20
-27.66337585449219
 30
0.0
 11
-135.1596412658691
 21
-27.73018646240235
 31
0.0
  0
LINE
  5
11B
330
1F
100
AcDbEntity
  8
TFR-TRI
  6
Continuous
 62
     1
100
AcDbLine
 10
-94.21477127075196
 20
-27.63569641113281
 30
0.0
 11
-94.21477127075196
 21
-27.66337585449219
 31
0.0
  0
LINE
  5
11C
330
1F
100
AcDbEntity
  8
TFR-TRI
  6
Continuous
 62
     1
100
AcDbLine
 10
-94.21477127075196
 20
-27.66337585449219
 30
0.0
 11
-94.21477127075196
 21
-27.73018646240235
 31
0.0
  0
LINE
  5
11D
330
1F
100
AcDbEntity
  8
TFR-TRI
  6
Continuous
 62
   251
100
AcDbLine
 10
-94.21477127075196
 20
-27.95389556884766
 30
0.0
 11
-94.21477127075196
 21
-27.89766693115235
 31
0.0
  0
LINE
  5
11E
330
1F
100
AcDbEntity
  8
TFR-TRI
  6
Continuous
 62
   251
100
AcDbLine
 10
-135.1596412658691
 20
-27.89766693115235
 30
0.0
 11
-94.21477127075196
 21
-27.89766693115235
 31
0.0
  0
LINE
  5
11F
330
1F
100
AcDbEntity
  8
TFR-TRI
  6
Continuous
 62
   251
100
AcDbLine
 10
-135.1596412658691
 20
-27.95389556884766
 30
0.0
 11
-135.1596412658691
 21
-27.89766693115235
 31
0.0
  0
LINE
  5
120
330
1F
100
AcDbEntity
  8
TFR-TRI
  6
Continuous
 62
   251
100
AcDbLine
 10
-135.1596412658691
 20
-27.95389556884766
 30
0.0
 11
-94.21477127075196
 21
-27.95389556884766
 31
0.0
  0
LINE
  5
121
330
1F
100
AcDbEntity
  8
TFR-TRI
  6
Continuous
 62
   251
100
AcDbLine
 10
-94.21477127075196
 20
-27.89766693115235
 30
0.0
 11
-94.21477127075196
 21
-27.75847625732422
 31
0.0
  0
LINE
  5
122
330
1F
100
AcDbEntity
  8
TFR-TRI
  6
Continuous
 62
   251
100
AcDbLine
 10
-135.1596412658691
 20
-27.75847625732422
 30
0.0
 11
-94.21477127075196
 21
-27.75847625732422
 31
0.0
  0
LINE
  5
123
330
1F
100
AcDbEntity
  8
TFR-TRI
  6
Continuous
 62
   251
100
AcDbLine
 10
-135.1596412658691
 20
-27.89766693115235
 30
0.0
 11
-135.1596412658691
 21
-27.75847625732422
 31
0.0
  0
LINE
  5
124
330
1F
100
AcDbEntity
  8
TFR-TRI
  6
Continuous
 62
   251
100
AcDbLine
 10
-94.21477127075196
 20
-27.75847625732422
 30
0.0
 11
-94.21477127075196
 21
-27.73365020751953
 31
0.0
  0
LINE
  5
125
330
1F
100
AcDbEntity
  8
TFR-TRI
  6
Continuous
 62
   251
100
AcDbLine
 10
-135.1596412658691
 20
-27.73365020751953
 30
0.0
 11
-94.21477127075196
 21
-27.73365020751953
 31
0.0
  0
LINE
  5
126
330
1F
100
AcDbEntity
  8
TFR-TRI
  6
Continuous
 62
   251
100
AcDbLine
 10
-135.1596412658691
 20
-27.75847625732422
 30
0.0
 11
-135.1596412658691
 21
-27.73365020751953
 31
0.0
  0
LINE
  5
127
330
1F
100
AcDbEntity
  8
TFR-TRI
  6
Continuous
 62
   251
100
AcDbLine
 10
-94.21477127075196
 20
-28.29365539550781
 30
0.0
 11
-94.21477127075196
 21
-28.27327728271484
 31
0.0
  0
LINE
  5
128
330
1F
100
AcDbEntity
  8
TFR-TRI
  6
Continuous
 62
   251
100
AcDbLine
 10
-94.21477127075196
 20
-28.27327728271484
 30
0.0
 11
-94.21477127075196
 21
-28.22407531738281
 31
0.0
  0
LINE
  5
129
330
1F
100
AcDbEntity
  8
TFR-TRI
  6
Continuous
 62
   251
100
AcDbLine
 10
-135.1596412658691
 20
-28.29365539550781
 30
0.0
 11
-135.1596412658691
 21
-28.27327728271484
 31
0.0
  0
LINE
  5
12A
330
1F
100
AcDbEntity
  8
TFR-TRI
  6
Continuous
 62
   251
100
AcDbLine
 10
-135.1596412658691
 20
-28.27327728271484
 30
0.0
 11
-135.1596412658691
 21
-28.22407531738281
 31
0.0
  0
LINE
  5
12B
330
1F
100
AcDbEntity
  8
TFR-TRI
  6
Continuous
 62
   251
100
AcDbLine
 10
-135.1596412658691
 20
-28.22407531738281
 30
0.0
 11
-94.21477127075196
 21
-28.22407531738281
 31
0.0
  0
LINE
  5
12C
330
1F
100
AcDbEntity
  8
TFR-TRI
  6
Continuous
 62
   251
100
AcDbLine
 10
-94.21477127075196
 20
-28.22407531738281
 30
0.0
 11
-94.21477127075196
 21
-28.08488464355469
 31
0.0
  0
LINE
  5
12D
330
1F
100
AcDbEntity
  8
TFR-TRI
  6
Continuous
 62
   251
100
AcDbLine
 10
-135.1596412658691
 20
-28.08488464355469
 30
0.0
 11
-94.21477127075196
 21
-28.08488464355469
 31
0.0
  0
LINE
  5
12E
330
1F
100
AcDbEntity
  8
TFR-TRI
  6
Continuous
 62
   251
100
AcDbLine
 10
-135.1596412658691
 20
-28.22407531738281
 30
0.0
 11
-135.1596412658691
 21
-28.08488464355469
 31
0.0
  0
LINE
  5
12F
330
1F
100
AcDbEntity
  8
TFR-TRI
  6
Continuous
 62
   251
100
AcDbLine
 10
-94.21477127075196
 20
-28.08488464355469
 30
0.0
 11
-94.21477127075196
 21
-28.01873016357422
 31
0.0
  0
LINE
  5
130
330
1F
100
AcDbEntity
  8
TFR-TRI
  6
Continuous
 62
   251
100
AcDbLine
 10
-135.1596412658691
 20
-28.01873016357422
 30
0.0
 11
-94.21477127075196
 21
-28.01873016357422
 31
0.0
  0
LINE
  5
131
330
1F
100
AcDbEntity
  8
TFR-TRI
  6
Continuous
 62
   251
100
AcDbLine
 10
-135.1596412658691
 20
-28.08488464355469
 30
0.0
 11
-135.1596412658691
 21
-28.01873016357422
 31
0.0
  0
LINE
  5
132
330
1F
100
AcDbEntity
  8
TFR-TRI
  6
Continuous
 62
   251
100
AcDbLine
 10
-94.21477127075196
 20
-28.01873016357422
 30
0.0
 11
-94.21477127075196
 21
-27.95389556884766
 31
0.0
  0
LINE
  5
133
330
1F
100
AcDbEntity
  8
TFR-TRI
  6
Continuous
 62
   251
100
AcDbLine
 10
-135.1596412658691
 20
-28.01873016357422
 30
0.0
 11
-135.1596412658691
 21
-27.95389556884766
 31
0.0
  0
LINE
  5
134
330
1F
100
AcDbEntity
  8
TFR-TRI
  6
Continuous
 62
     1
100
AcDbLine
 10
-42.83093643188476
 20
17.89445495605469
 30
0.0
 11
-42.39786148071289
 21
17.89445495605469
 31
0.0
  0
LINE
  5
135
330
1F
100
AcDbEntity
  8
TFR-TRI
  6
Continuous
 62
     1
100
AcDbLine
 10
-42.83093643188476
 20
17.95744323730469
 30
0.0
 11
-42.39786148071289
 21
17.95744323730469
 31
0.0
  0
LINE
  5
136
330
1F
100
AcDbEntity
  8
TFR-TRI
  6
Continuous
 62
     1
100
AcDbLine
 10
-42.31912612915039
 20
17.948974609375
 30
0.0
 11
-42.31912612915039
 21
17.90034484863281
 31
0.0
  0
LINE
  5
137
330
1F
100
AcDbEntity
  8
TFR-TRI
  6
Continuous
 62
     1
100
AcDbLine
 10
-42.43722915649414
 20
18.55586242675781
 30
0.0
 11
-42.43722915649414
 21
18.49287414550781
 31
0.0
  0
LINE
  5
138
330
1F
100
AcDbEntity
  8
TFR-TRI
  6
Continuous
 62
     1
100
AcDbLine
 10
-42.92541885375976
 20
19.91807556152344
 30
0.0
 11
-42.86243057250977
 21
19.91807556152344
 31
0.0
  0
LINE
  5
139
330
1F
100
AcDbEntity
  8
TFR-TRI
  6
Continuous
 62
     1
100
AcDbLine
 10
-42.86243057250977
 20
18.55047607421875
 30
0.0
 11
-42.86243057250977
 21
19.05192565917969
 31
0.0
  0
LINE
  5
13A
330
1F
100
AcDbEntity
  8
TFR-TRI
  6
Continuous
 62
     1
100
AcDbLine
 10
-42.86243057250977
 20
19.05192565917969
 30
0.0
 11
-42.92541885375976
 21
19.05192565917969
 31
0.0
  0
LINE
  5
13B
330
1F
100
AcDbEntity
  8
TFR-TRI
  6
Continuous
 62
     1
100
AcDbLine
 10
-42.92541885375976
 20
18.46138000488281
 30
0.0
 11
-42.92541885375976
 21
19.05192565917969
 31
0.0
  0
LINE
  5
13C
330
1F
100
AcDbEntity
  8
TFR-TRI
  6
Continuous
 62
     1
100
AcDbLine
 10
-42.86243057250977
 20
19.91807556152344
 30
0.0
 11
-42.86243057250977
 21
19.83934020996094
 31
0.0
  0
LINE
  5
13D
330
1F
100
AcDbEntity
  8
TFR-TRI
  6
Continuous
 62
     1
100
AcDbLine
 10
-42.86243057250977
 20
19.20941162109375
 30
0.0
 11
-42.86243057250977
 21
19.83934020996094
 31
0.0
  0
LINE
  5
13E
330
1F
100
AcDbEntity
  8
TFR-TRI
  6
Continuous
 62
     1
100
AcDbLine
 10
-42.86243057250977
 20
19.20941162109375
 30
0.0
 11
-42.86243057250977
 21
19.13067626953125
 31
0.0
  0
LINE
  5
13F
330
1F
100
AcDbEntity
  8
TFR-TRI
  6
Continuous
 62
     1
100
AcDbLine
 10
-42.86243057250977
 20
19.13067626953125
 30
0.0
 11
-42.86243057250977
 21
19.05192565917969
 31
0.0
  0
LINE
  5
140
330
1F
100
AcDbEntity
  8
TFR-TRI
  6
Continuous
 62
     1
100
AcDbLine
 10
-42.86243057250977
 20
18.46138000488281
 30
0.0
 11
-42.86243057250977
 21
18.38264465332031
 31
0.0
  0
LINE
  5
141
330
1F
100
AcDbEntity
  8
TFR-TRI
  6
Continuous
 62
     1
100
AcDbLine
 10
-42.86243057250977
 20
17.98893737792969
 30
0.0
 11
-42.86243057250977
 21
18.38264465332031
 31
0.0
  0
LINE
  5
142
330
1F
100
AcDbEntity
  8
TFR-TRI
  6
Continuous
 62
     1
100
AcDbLine
 10
-42.92541885375976
 20
17.98893737792969
 30
0.0
 11
-42.92541885375976
 21
18.38264465332031
 31
0.0
  0
LINE
  5
143
330
1F
100
AcDbEntity
  8
TFR-TRI
  6
Continuous
 62
     1
100
AcDbLine
 10
-42.92541885375976
 20
18.38264465332031
 30
0.0
 11
-42.92541885375976
 21
18.46138000488281
 31
0.0
  0
LINE
  5
144
330
1F
100
AcDbEntity
  8
TFR-TRI
  6
Continuous
 62
     1
100
AcDbLine
 10
-42.92541885375976
 20
19.05192565917969
 30
0.0
 11
-42.92541885375976
 21
19.13067626953125
 31
0.0
  0
LINE
  5
145
330
1F
100
AcDbEntity
  8
TFR-TRI
  6
Continuous
 62
     1
100
AcDbLine
 10
-42.92541885375976
 20
19.13067626953125
 30
0.0
 11
-42.92541885375976
 21
19.20941162109375
 31
0.0
  0
LINE
  5
146
330
1F
100
AcDbEntity
  8
TFR-TRI
  6
Continuous
 62
     1
100
AcDbLine
 10
-42.92541885375976
 20
19.20941162109375
 30
0.0
 11
-42.92541885375976
 21
19.83934020996094
 31
0.0
  0
LINE
  5
147
330
1F
100
AcDbEntity
  8
TFR-TRI
  6
Continuous
 62
     1
100
AcDbLine
 10
-42.92541885375976
 20
19.83934020996094
 30
0.0
 11
-42.92541885375976
 21
19.91807556152344
 31
0.0
  0
LINE
  5
148
330
1F
100
AcDbEntity
  8
TFR-TRI
  6
Continuous
 62
     1
100
AcDbLine
 10
-42.92541885375976
 20
18.46138000488281
 30
0.0
 11
-42.86243057250977
 21
18.46138000488281
 31
0.0
  0
LINE
  5
149
330
1F
100
AcDbEntity
  8
TFR-TRI
  6
Continuous
 62
     1
100
AcDbLine
 10
-42.86243057250977
 20
18.38264465332031
 30
0.0
 11
-42.92541885375976
 21
18.38264465332031
 31
0.0
  0
LINE
  5
14A
330
1F
100
AcDbEntity
  8
TFR-TRI
  6
Continuous
 62
     1
100
AcDbLine
 10
-42.92541885375976
 20
17.98893737792969
 30
0.0
 11
-42.86243057250977
 21
17.98893737792969
 31
0.0
  0
LINE
  5
14B
330
1F
100
AcDbEntity
  8
TFR-TRI
  6
Continuous
 62
     1
100
AcDbLine
 10
-42.83093643188476
 20
17.89445495605469
 30
0.0
 11
-42.83093643188476
 21
17.95744323730469
 31
0.0
  0
LINE
  5
14C
330
1F
100
AcDbEntity
  8
TFR-TRI
  6
Continuous
 62
     1
100
AcDbLine
 10
-42.39786148071289
 20
17.89445495605469
 30
0.0
 11
-42.39786148071289
 21
17.95744323730469
 31
0.0
  0
LINE
  5
14D
330
1F
100
AcDbEntity
  8
TFR-TRI
  6
Continuous
 62
     1
100
AcDbLine
 10
-42.83093643188476
 20
18.55586242675781
 30
0.0
 11
-42.83093643188476
 21
18.49287414550781
 31
0.0
  0
LINE
  5
14E
330
1F
100
AcDbEntity
  8
TFR-TRI
  6
Continuous
 62
     1
100
AcDbLine
 10
-42.83093643188476
 20
18.49287414550781
 30
0.0
 11
-42.51596450805664
 21
18.49287414550781
 31
0.0
  0
LINE
  5
14F
330
1F
100
AcDbEntity
  8
TFR-TRI
  6
Continuous
 62
     1
100
AcDbLine
 10
-42.51596450805664
 20
18.49287414550781
 30
0.0
 11
-42.51596450805664
 21
18.55586242675781
 31
0.0
  0
LINE
  5
150
330
1F
100
AcDbEntity
  8
TFR-TRI
  6
Continuous
 62
     1
100
AcDbLine
 10
-42.83093643188476
 20
18.55586242675781
 30
0.0
 11
-42.51596450805664
 21
18.55586242675781
 31
0.0
  0
LINE
  5
151
330
1F
100
AcDbEntity
  8
TFR-TRI
  6
Continuous
 62
     1
100
AcDbLine
 10
-42.51596450805664
 20
18.55586242675781
 30
0.0
 11
-42.43722915649414
 21
18.55586242675781
 31
0.0
  0
LINE
  5
152
330
1F
100
AcDbEntity
  8
TFR-TRI
  6
Continuous
 62
     1
100
AcDbLine
 10
-42.43722915649414
 20
18.49287414550781
 30
0.0
 11
-42.51596450805664
 21
18.49287414550781
 31
0.0
  0
LINE
  5
153
330
1F
100
AcDbEntity
  8
TFR-TRI
  6
Continuous
 62
     1
100
AcDbLine
 10
-42.86243057250977
 20
19.83934020996094
 30
0.0
 11
-42.92541885375976
 21
19.83934020996094
 31
0.0
  0
LINE
  5
154
330
1F
100
AcDbEntity
  8
TFR-TRI
  6
Continuous
 62
     1
100
AcDbLine
 10
-42.92541885375976
 20
19.20941162109375
 30
0.0
 11
-42.86243057250977
 21
19.20941162109375
 31
0.0
  0
LINE
  5
155
330
1F
100
AcDbEntity
  8
TFR-TRI
  6
Continuous
 62
     1
100
AcDbLine
 10
-42.92541885375976
 20
19.13067626953125
 30
0.0
 11
-42.86243057250977
 21
19.13067626953125
 31
0.0
  0
LINE
  5
156
330
1F
100
AcDbEntity
  8
TFR-TRI
  6
Continuous
 62
   251
100
AcDbLine
 10
-42.60722732543945
 20
16.10508728027344
 30
0.0
 11
-42.66345596313477
 21
17.69619750976562
 31
0.0
  0
LINE
  5
157
330
1F
100
AcDbEntity
  8
TFR-TRI
  6
Continuous
 62
   251
100
AcDbLine
 10
-42.66345596313477
 20
17.69619750976562
 30
0.0
 11
-42.80264663696288
 21
17.83540344238281
 31
0.0
  0
LINE
  5
158
330
1F
100
AcDbEntity
  8
TFR-TRI
  6
Continuous
 62
   251
100
AcDbLine
 10
-42.80264663696288
 20
17.83540344238281
 30
0.0
 11
-42.80264663696288
 21
17.85508728027344
 31
0.0
  0
LINE
  5
159
330
1F
100
AcDbEntity
  8
TFR-TRI
  6
Continuous
 62
   251
100
AcDbLine
 10
-42.80264663696288
 20
17.85508728027344
 30
0.0
 11
-42.82747268676757
 21
17.85508728027344
 31
0.0
  0
LINE
  5
15A
330
1F
100
AcDbEntity
  8
TFR-TRI
  6
Continuous
 62
   251
100
AcDbLine
 10
-42.82747268676757
 20
17.85508728027344
 30
0.0
 11
-42.82747268676757
 21
17.89445495605469
 31
0.0
  0
LINE
  5
15B
330
1F
100
AcDbEntity
  8
TFR-TRI
  6
Continuous
 62
   251
100
AcDbLine
 10
-42.82747268676757
 20
17.89445495605469
 30
0.0
 11
-42.33703994750976
 21
17.89445495605469
 31
0.0
  0
LINE
  5
15C
330
1F
100
AcDbEntity
  8
TFR-TRI
  6
Continuous
 62
   251
100
AcDbLine
 10
-42.33703994750976
 20
17.95486450195312
 30
0.0
 11
-42.82747268676757
 21
17.95486450195312
 31
0.0
  0
LINE
  5
15D
330
1F
100
AcDbEntity
  8
TFR-TRI
  6
Continuous
 62
   251
100
AcDbLine
 10
-42.82747268676757
 20
17.95486450195312
 30
0.0
 11
-42.82747268676757
 21
17.99423217773437
 31
0.0
  0
LINE
  5
15E
330
1F
100
AcDbEntity
  8
TFR-TRI
  6
Continuous
 62
   251
100
AcDbLine
 10
-42.82747268676757
 20
17.99423217773437
 30
0.0
 11
-42.33703994750976
 21
17.99423217773437
 31
0.0
  0
LINE
  5
15F
330
1F
100
AcDbEntity
  8
TFR-TRI
  6
Continuous
 62
   251
100
AcDbLine
 10
-42.33703994750976
 20
17.85508728027344
 30
0.0
 11
-42.33703994750976
 21
17.83540344238281
 31
0.0
  0
LINE
  5
160
330
1F
100
AcDbEntity
  8
TFR-TRI
  6
Continuous
 62
   251
100
AcDbLine
 10
-42.33703994750976
 20
17.83540344238281
 30
0.0
 11
-42.47623062133789
 21
17.69619750976562
 31
0.0
  0
LINE
  5
161
330
1F
100
AcDbEntity
  8
TFR-TRI
  6
Continuous
 62
   251
100
AcDbLine
 10
-42.47623062133789
 20
17.69619750976562
 30
0.0
 11
-42.54239273071289
 21
16.10508728027344
 31
0.0
  0
LINE
  5
162
330
1F
100
AcDbEntity
  8
TFR-TRI
  6
Continuous
 62
   251
100
AcDbLine
 10
-42.54239273071289
 20
16.10508728027344
 30
0.0
 11
-42.60722732543945
 21
16.10508728027344
 31
0.0
  0
LINE
  5
163
330
1F
100
AcDbEntity
  8
TFR-TRI
  6
Continuous
 62
     1
100
AcDbLine
 10
39.05770492553711
 20
18.49287414550781
 30
0.0
 11
35.27819442749024
 21
18.49287414550781
 31
0.0
  0
LINE
  5
164
330
1F
100
AcDbEntity
  8
TFR-TRI
  6
Continuous
 62
     1
100
AcDbLine
 10
39.05770492553711
 20
18.49287414550781
 30
0.0
 11
39.05770492553711
 21
18.55586242675781
 31
0.0
  0
LINE
  5
165
330
1F
100
AcDbEntity
  8
TFR-TRI
  6
Continuous
 62
     1
100
AcDbLine
 10
35.27819442749024
 20
18.55586242675781
 30
0.0
 11
39.05770492553711
 21
18.55586242675781
 31
0.0
  0
LINE
  5
166
330
1F
100
AcDbEntity
  8
TFR-TRI
  6
Continuous
 62
     1
100
AcDbLine
 10
35.27819442749024
 20
18.55586242675781
 30
0.0
 11
35.27819442749024
 21
18.49287414550781
 31
0.0
  0
LINE
  5
167
330
1F
100
AcDbEntity
  8
TFR-TRI
  6
Continuous
 62
     1
100
AcDbLine
 10
19.48684310913086
 20
18.55586242675781
 30
0.0
 11
10.38842391967773
 21
18.55586242675781
 31
0.0
  0
LINE
  5
168
330
1F
100
AcDbEntity
  8
TFR-TRI
  6
Continuous
 62
     1
100
AcDbLine
 10
10.38842391967773
 20
18.55586242675781
 30
0.0
 11
10.38842391967773
 21
18.49287414550781
 31
0.0
  0
LINE
  5
169
330
1F
100
AcDbEntity
  8
TFR-TRI
  6
Continuous
 62
     1
100
AcDbLine
 10
10.38842391967773
 20
18.49287414550781
 30
0.0
 11
19.48684310913086
 21
18.49287414550781
 31
0.0
  0
LINE
  5
16A
330
1F
100
AcDbEntity
  8
TFR-TRI
  6
Continuous
 62
     1
100
AcDbLine
 10
19.48684310913086
 20
18.49287414550781
 30
0.0
 11
19.48684310913086
 21
18.55586242675781
 31
0.0
  0
LINE
  5
16B
330
1F
100
AcDbEntity
  8
TFR-TRI
  6
Continuous
 62
     1
100
AcDbLine
 10
8.262447357177734
 20
18.55586242675781
 30
0.0
 11
4.482906341552734
 21
18.55586242675781
 31
0.0
  0
LINE
  5
16C
330
1F
100
AcDbEntity
  8
TFR-TRI
  6
Continuous
 62
     1
100
AcDbLine
 10
4.482906341552734
 20
18.55586242675781
 30
0.0
 11
4.482906341552734
 21
18.49287414550781
 31
0.0
  0
LINE
  5
16D
330
1F
100
AcDbEntity
  8
TFR-TRI
  6
Continuous
 62
     1
100
AcDbLine
 10
4.482906341552734
 20
18.49287414550781
 30
0.0
 11
8.262447357177734
 21
18.49287414550781
 31
0.0
  0
LINE
  5
16E
330
1F
100
AcDbEntity
  8
TFR-TRI
  6
Continuous
 62
     1
100
AcDbLine
 10
8.262447357177734
 20
18.49287414550781
 30
0.0
 11
8.262447357177734
 21
18.55586242675781
 31
0.0
  0
LINE
  5
16F
330
1F
100
AcDbEntity
  8
TFR-TRI
  6
Continuous
 62
     1
100
AcDbLine
 10
22.87267684936523
 20
19.91807556152344
 30
0.0
 11
20.66796493530274
 21
19.91807556152344
 31
0.0
  0
LINE
  5
170
330
1F
100
AcDbEntity
  8
TFR-TRI
  6
Continuous
 62
     1
100
AcDbLine
 10
19.64431381225586
 20
18.46138000488281
 30
0.0
 11
19.64431381225586
 21
19.05192565917969
 31
0.0
  0
LINE
  5
171
330
1F
100
AcDbEntity
  8
TFR-TRI
  6
Continuous
 62
     1
100
AcDbLine
 10
21.85885238647461
 20
19.42515563964844
 30
0.0
 11
21.68169784545899
 21
19.42515563964844
 31
0.0
  0
LINE
  5
172
330
1F
100
AcDbEntity
  8
TFR-TRI
  6
Continuous
 62
     1
100
AcDbLine
 10
21.68169784545899
 20
19.64169311523437
 30
0.0
 11
21.85885238647461
 21
19.64169311523437
 31
0.0
  0
LINE
  5
173
330
1F
100
AcDbEntity
  8
TFR-TRI
  6
Continuous
 62
     1
100
AcDbLine
 10
22.95141220092773
 20
19.20941162109375
 30
0.0
 11
22.95141220092773
 21
19.83934020996094
 31
0.0
  0
LINE
  5
174
330
1F
100
AcDbEntity
  8
TFR-TRI
  6
Continuous
 62
     1
100
AcDbLine
 10
22.95141220092773
 20
19.83934020996094
 30
0.0
 11
22.87267684936523
 21
19.91807556152344
 31
0.0
  0
LINE
  5
175
330
1F
100
AcDbEntity
  8
TFR-TRI
  6
Continuous
 62
     1
100
AcDbLine
 10
20.66796493530274
 20
19.91807556152344
 30
0.0
 11
20.58919906616211
 21
19.83934020996094
 31
0.0
  0
LINE
  5
176
330
1F
100
AcDbEntity
  8
TFR-TRI
  6
Continuous
 62
     1
100
AcDbLine
 10
20.58919906616211
 20
19.20941162109375
 30
0.0
 11
20.58919906616211
 21
19.83934020996094
 31
0.0
  0
LINE
  5
177
330
1F
100
AcDbEntity
  8
TFR-TRI
  6
Continuous
 62
     1
100
AcDbLine
 10
20.58919906616211
 20
19.20941162109375
 30
0.0
 11
20.51046371459961
 21
19.13067626953125
 31
0.0
  0
LINE
  5
178
330
1F
100
AcDbEntity
  8
TFR-TRI
  6
Continuous
 62
     1
100
AcDbLine
 10
19.72307968139648
 20
19.13067626953125
 30
0.0
 11
20.51046371459961
 21
19.13067626953125
 31
0.0
  0
LINE
  5
179
330
1F
100
AcDbEntity
  8
TFR-TRI
  6
Continuous
 62
     1
100
AcDbLine
 10
19.72307968139648
 20
19.13067626953125
 30
0.0
 11
19.64431381225586
 21
19.05192565917969
 31
0.0
  0
LINE
  5
17A
330
1F
100
AcDbEntity
  8
TFR-TRI
  6
Continuous
 62
     1
100
AcDbLine
 10
19.64431381225586
 20
18.46138000488281
 30
0.0
 11
19.56557846069336
 21
18.46138000488281
 31
0.0
  0
LINE
  5
17B
330
1F
100
AcDbEntity
  8
TFR-TRI
  6
Continuous
 62
     1
100
AcDbLine
 10
4.404170989990234
 20
18.46138000488281
 30
0.0
 11
19.56557846069336
 21
18.46138000488281
 31
0.0
  0
LINE
  5
17C
330
1F
100
AcDbEntity
  8
TFR-TRI
  6
Continuous
 62
     1
100
AcDbLine
 10
4.404170989990234
 20
18.46138000488281
 30
0.0
 11
1.376613616943359
 21
18.46138000488281
 31
0.0
  0
LINE
  5
17D
330
1F
100
AcDbEntity
  8
TFR-TRI
  6
Continuous
 62
     1
100
AcDbLine
 10
1.376613616943359
 20
18.46138000488281
 30
0.0
 11
1.297878265380859
 21
18.38264465332031
 31
0.0
  0
LINE
  5
17E
330
1F
100
AcDbEntity
  8
TFR-TRI
  6
Continuous
 62
     1
100
AcDbLine
 10
1.297878265380859
 20
17.99423217773437
 30
0.0
 11
1.297878265380859
 21
18.38264465332031
 31
0.0
  0
LINE
  5
17F
330
1F
100
AcDbEntity
  8
TFR-TRI
  6
Continuous
 62
     1
100
AcDbLine
 10
42.2427635192871
 20
17.99423217773437
 30
0.0
 11
42.2427635192871
 21
18.38264465332031
 31
0.0
  0
LINE
  5
180
330
1F
100
AcDbEntity
  8
TFR-TRI
  6
Continuous
 62
     1
100
AcDbLine
 10
42.2427635192871
 20
18.38264465332031
 30
0.0
 11
42.1640281677246
 21
18.46138000488281
 31
0.0
  0
LINE
  5
181
330
1F
100
AcDbEntity
  8
TFR-TRI
  6
Continuous
 62
     1
100
AcDbLine
 10
42.1640281677246
 20
18.46138000488281
 30
0.0
 11
39.13644027709961
 21
18.46138000488281
 31
0.0
  0
LINE
  5
182
330
1F
100
AcDbEntity
  8
TFR-TRI
  6
Continuous
 62
     1
100
AcDbLine
 10
39.13644027709961
 20
18.46138000488281
 30
0.0
 11
23.97503280639648
 21
18.46138000488281
 31
0.0
  0
LINE
  5
183
330
1F
100
AcDbEntity
  8
TFR-TRI
  6
Continuous
 62
     1
100
AcDbLine
 10
23.97503280639648
 20
18.46138000488281
 30
0.0
 11
23.89629745483398
 21
18.46138000488281
 31
0.0
  0
LINE
  5
184
330
1F
100
AcDbEntity
  8
TFR-TRI
  6
Continuous
 62
     1
100
AcDbLine
 10
23.89629745483398
 20
18.46138000488281
 30
0.0
 11
23.89629745483398
 21
19.05192565917969
 31
0.0
  0
LINE
  5
185
330
1F
100
AcDbEntity
  8
TFR-TRI
  6
Continuous
 62
     1
100
AcDbLine
 10
23.89629745483398
 20
19.05192565917969
 30
0.0
 11
23.81756210327148
 21
19.13067626953125
 31
0.0
  0
LINE
  5
186
330
1F
100
AcDbEntity
  8
TFR-TRI
  6
Continuous
 62
     1
100
AcDbLine
 10
23.81756210327148
 20
19.13067626953125
 30
0.0
 11
23.03014755249023
 21
19.13067626953125
 31
0.0
  0
LINE
  5
187
330
1F
100
AcDbEntity
  8
TFR-TRI
  6
Continuous
 62
     1
100
AcDbLine
 10
23.03014755249023
 20
19.13067626953125
 30
0.0
 11
22.95141220092773
 21
19.20941162109375
 31
0.0
  0
LINE
  5
188
330
1F
100
AcDbEntity
  8
TFR-TRI
  6
Continuous
 62
     1
100
AcDbLine
 10
40.62267684936523
 20
18.10665893554687
 30
0.0
 11
40.44552230834961
 21
18.10665893554687
 31
0.0
  0
LINE
  5
189
330
1F
100
AcDbEntity
  8
TFR-TRI
  6
Continuous
 62
     1
100
AcDbLine
 10
40.44552230834961
 20
18.32319641113281
 30
0.0
 11
40.62267684936523
 21
18.32319641113281
 31
0.0
  0
LINE
  5
18A
330
1F
100
AcDbEntity
  8
TFR-TRI
  6
Continuous
 62
     1
100
AcDbLine
 10
39.83526229858398
 20
18.10665893554687
 30
0.0
 11
39.65810775756836
 21
18.10665893554687
 31
0.0
  0
LINE
  5
18B
330
1F
100
AcDbEntity
  8
TFR-TRI
  6
Continuous
 62
     1
100
AcDbLine
 10
39.65810775756836
 20
18.32319641113281
 30
0.0
 11
39.83526229858398
 21
18.32319641113281
 31
0.0
  0
LINE
  5
18C
330
1F
100
AcDbEntity
  8
TFR-TRI
  6
Continuous
 62
     1
100
AcDbLine
 10
3.095119476318359
 20
18.32319641113281
 30
0.0
 11
2.917964935302734
 21
18.32319641113281
 31
0.0
  0
LINE
  5
18D
330
1F
100
AcDbEntity
  8
TFR-TRI
  6
Continuous
 62
     1
100
AcDbLine
 10
2.917964935302734
 20
18.10665893554687
 30
0.0
 11
3.095119476318359
 21
18.10665893554687
 31
0.0
  0
LINE
  5
18E
330
1F
100
AcDbEntity
  8
TFR-TRI
  6
Continuous
 62
     1
100
AcDbLine
 10
3.882503509521484
 20
18.32319641113281
 30
0.0
 11
3.705348968505859
 21
18.32319641113281
 31
0.0
  0
LINE
  5
18F
330
1F
100
AcDbEntity
  8
TFR-TRI
  6
Continuous
 62
     1
100
AcDbLine
 10
3.705348968505859
 20
18.10665893554687
 30
0.0
 11
3.882503509521484
 21
18.10665893554687
 31
0.0
  0
LINE
  5
190
330
1F
100
AcDbEntity
  8
TFR-TRI
  6
Continuous
 62
     1
100
AcDbLine
 10
23.97503280639648
 20
18.46138000488281
 30
0.0
 11
23.97503280639648
 21
18.48365783691406
 31
0.0
  0
LINE
  5
191
330
1F
100
AcDbEntity
  8
TFR-TRI
  6
Continuous
 62
     1
100
AcDbLine
 10
23.97503280639648
 20
18.48365783691406
 30
0.0
 11
23.97503280639648
 21
18.49287414550781
 31
0.0
  0
LINE
  5
192
330
1F
100
AcDbEntity
  8
TFR-TRI
  6
Continuous
 62
     1
100
AcDbLine
 10
39.13644027709961
 20
18.46138000488281
 30
0.0
 11
39.13644027709961
 21
18.48365783691406
 31
0.0
  0
LINE
  5
193
330
1F
100
AcDbEntity
  8
TFR-TRI
  6
Continuous
 62
     1
100
AcDbLine
 10
39.13644027709961
 20
18.48365783691406
 30
0.0
 11
39.13644027709961
 21
18.49287414550781
 31
0.0
  0
LINE
  5
194
330
1F
100
AcDbEntity
  8
TFR-TRI
  6
Continuous
 62
     1
100
AcDbLine
 10
23.97503280639648
 20
18.49287414550781
 30
0.0
 11
23.97503280639648
 21
18.55586242675781
 31
0.0
  0
LINE
  5
195
330
1F
100
AcDbEntity
  8
TFR-TRI
  6
Continuous
 62
     1
100
AcDbLine
 10
39.13644027709961
 20
18.55586242675781
 30
0.0
 11
39.13644027709961
 21
18.49287414550781
 31
0.0
  0
LINE
  5
196
330
1F
100
AcDbEntity
  8
TFR-TRI
  6
Continuous
 62
     1
100
AcDbLine
 10
39.05770492553711
 20
18.55586242675781
 30
0.0
 11
39.13644027709961
 21
18.55586242675781
 31
0.0
  0
LINE
  5
197
330
1F
100
AcDbEntity
  8
TFR-TRI
  6
Continuous
 62
     1
100
AcDbLine
 10
23.97503280639648
 20
18.55586242675781
 30
0.0
 11
24.05376815795899
 21
18.55586242675781
 31
0.0
  0
LINE
  5
198
330
1F
100
AcDbEntity
  8
TFR-TRI
  6
Continuous
 62
     1
100
AcDbLine
 10
24.05376815795899
 20
18.55586242675781
 30
0.0
 11
33.15218734741211
 21
18.55586242675781
 31
0.0
  0
LINE
  5
199
330
1F
100
AcDbEntity
  8
TFR-TRI
  6
Continuous
 62
     1
100
AcDbLine
 10
33.15218734741211
 20
18.55586242675781
 30
0.0
 11
33.23095321655273
 21
18.55586242675781
 31
0.0
  0
LINE
  5
19A
330
1F
100
AcDbEntity
  8
TFR-TRI
  6
Continuous
 62
     1
100
AcDbLine
 10
35.19945907592774
 20
18.55586242675781
 30
0.0
 11
33.23095321655273
 21
18.55586242675781
 31
0.0
  0
LINE
  5
19B
330
1F
100
AcDbEntity
  8
TFR-TRI
  6
Continuous
 62
     1
100
AcDbLine
 10
35.19945907592774
 20
18.55586242675781
 30
0.0
 11
35.27819442749024
 21
18.55586242675781
 31
0.0
  0
LINE
  5
19C
330
1F
100
AcDbEntity
  8
TFR-TRI
  6
Continuous
 62
     1
100
AcDbLine
 10
39.13644027709961
 20
18.49287414550781
 30
0.0
 11
39.05770492553711
 21
18.49287414550781
 31
0.0
  0
LINE
  5
19D
330
1F
100
AcDbEntity
  8
TFR-TRI
  6
Continuous
 62
     1
100
AcDbLine
 10
35.27819442749024
 20
18.49287414550781
 30
0.0
 11
35.19945907592774
 21
18.49287414550781
 31
0.0
  0
LINE
  5
19E
330
1F
100
AcDbEntity
  8
TFR-TRI
  6
Continuous
 62
     1
100
AcDbLine
 10
33.23095321655273
 20
18.49287414550781
 30
0.0
 11
35.19945907592774
 21
18.49287414550781
 31
0.0
  0
LINE
  5
19F
330
1F
100
AcDbEntity
  8
TFR-TRI
  6
Continuous
 62
     1
100
AcDbLine
 10
33.23095321655273
 20
18.49287414550781
 30
0.0
 11
33.15218734741211
 21
18.49287414550781
 31
0.0
  0
LINE
  5
1A0
330
1F
100
AcDbEntity
  8
TFR-TRI
  6
Continuous
 62
     1
100
AcDbLine
 10
33.15218734741211
 20
18.49287414550781
 30
0.0
 11
24.05376815795899
 21
18.49287414550781
 31
0.0
  0
LINE
  5
1A1
330
1F
100
AcDbEntity
  8
TFR-TRI
  6
Continuous
 62
     1
100
AcDbLine
 10
24.05376815795899
 20
18.49287414550781
 30
0.0
 11
23.97503280639648
 21
18.49287414550781
 31
0.0
  0
LINE
  5
1A2
330
1F
100
AcDbEntity
  8
TFR-TRI
  6
Continuous
 62
     1
100
AcDbLine
 10
24.05376815795899
 20
18.55586242675781
 30
0.0
 11
24.05376815795899
 21
18.49287414550781
 31
0.0
  0
LINE
  5
1A3
330
1F
100
AcDbEntity
  8
TFR-TRI
  6
Continuous
 62
     1
100
AcDbLine
 10
33.15218734741211
 20
18.49287414550781
 30
0.0
 11
33.15218734741211
 21
18.55586242675781
 31
0.0
  0
LINE
  5
1A4
330
1F
100
AcDbEntity
  8
TFR-TRI
  6
Continuous
 62
     1
100
AcDbLine
 10
19.56557846069336
 20
18.46138000488281
 30
0.0
 11
19.56557846069336
 21
18.48365783691406
 31
0.0
  0
LINE
  5
1A5
330
1F
100
AcDbEntity
  8
TFR-TRI
  6
Continuous
 62
     1
100
AcDbLine
 10
19.56557846069336
 20
18.48365783691406
 30
0.0
 11
19.56557846069336
 21
18.49287414550781
 31
0.0
  0
LINE
  5
1A6
330
1F
100
AcDbEntity
  8
TFR-TRI
  6
Continuous
 62
     1
100
AcDbLine
 10
4.404170989990234
 20
18.46138000488281
 30
0.0
 11
4.404170989990234
 21
18.48365783691406
 31
0.0
  0
LINE
  5
1A7
330
1F
100
AcDbEntity
  8
TFR-TRI
  6
Continuous
 62
     1
100
AcDbLine
 10
4.404170989990234
 20
18.48365783691406
 30
0.0
 11
4.404170989990234
 21
18.49287414550781
 31
0.0
  0
LINE
  5
1A8
330
1F
100
AcDbEntity
  8
TFR-TRI
  6
Continuous
 62
     1
100
AcDbLine
 10
19.56557846069336
 20
18.55586242675781
 30
0.0
 11
19.56557846069336
 21
18.49287414550781
 31
0.0
  0
LINE
  5
1A9
330
1F
100
AcDbEntity
  8
TFR-TRI
  6
Continuous
 62
     1
100
AcDbLine
 10
4.404170989990234
 20
18.49287414550781
 30
0.0
 11
4.404170989990234
 21
18.55586242675781
 31
0.0
  0
LINE
  5
1AA
330
1F
100
AcDbEntity
  8
TFR-TRI
  6
Continuous
 62
     1
100
AcDbLine
 10
4.404170989990234
 20
18.55586242675781
 30
0.0
 11
4.482906341552734
 21
18.55586242675781
 31
0.0
  0
LINE
  5
1AB
330
1F
100
AcDbEntity
  8
TFR-TRI
  6
Continuous
 62
     1
100
AcDbLine
 10
8.262447357177734
 20
18.55586242675781
 30
0.0
 11
8.341182708740234
 21
18.55586242675781
 31
0.0
  0
LINE
  5
1AC
330
1F
100
AcDbEntity
  8
TFR-TRI
  6
Continuous
 62
     1
100
AcDbLine
 10
10.30968856811523
 20
18.55586242675781
 30
0.0
 11
8.341182708740234
 21
18.55586242675781
 31
0.0
  0
LINE
  5
1AD
330
1F
100
AcDbEntity
  8
TFR-TRI
  6
Continuous
 62
     1
100
AcDbLine
 10
10.30968856811523
 20
18.55586242675781
 30
0.0
 11
10.38842391967773
 21
18.55586242675781
 31
0.0
  0
LINE
  5
1AE
330
1F
100
AcDbEntity
  8
TFR-TRI
  6
Continuous
 62
     1
100
AcDbLine
 10
19.48684310913086
 20
18.55586242675781
 30
0.0
 11
19.56557846069336
 21
18.55586242675781
 31
0.0
  0
LINE
  5
1AF
330
1F
100
AcDbEntity
  8
TFR-TRI
  6
Continuous
 62
     1
100
AcDbLine
 10
4.482906341552734
 20
18.49287414550781
 30
0.0
 11
4.404170989990234
 21
18.49287414550781
 31
0.0
  0
LINE
  5
1B0
330
1F
100
AcDbEntity
  8
TFR-TRI
  6
Continuous
 62
     1
100
AcDbLine
 10
19.56557846069336
 20
18.49287414550781
 30
0.0
 11
19.48684310913086
 21
18.49287414550781
 31
0.0
  0
LINE
  5
1B1
330
1F
100
AcDbEntity
  8
TFR-TRI
  6
Continuous
 62
     1
100
AcDbLine
 10
10.38842391967773
 20
18.49287414550781
 30
0.0
 11
10.30968856811523
 21
18.49287414550781
 31
0.0
  0
LINE
  5
1B2
330
1F
100
AcDbEntity
  8
TFR-TRI
  6
Continuous
 62
     1
100
AcDbLine
 10
8.341182708740234
 20
18.49287414550781
 30
0.0
 11
10.30968856811523
 21
18.49287414550781
 31
0.0
  0
LINE
  5
1B3
330
1F
100
AcDbEntity
  8
TFR-TRI
  6
Continuous
 62
     1
100
AcDbLine
 10
8.341182708740234
 20
18.49287414550781
 30
0.0
 11
8.262447357177734
 21
18.49287414550781
 31
0.0
  0
LINE
  5
1B4
330
1F
100
AcDbEntity
  8
TFR-TRI
  6
Continuous
 62
     1
100
AcDbLine
 10
10.30968856811523
 20
18.49287414550781
 30
0.0
 11
10.30968856811523
 21
18.55586242675781
 31
0.0
  0
LINE
  5
1B5
330
1F
100
AcDbEntity
  8
TFR-TRI
  6
Continuous
 62
     1
100
AcDbLine
 10
8.341182708740234
 20
18.55586242675781
 30
0.0
 11
8.341182708740234
 21
18.49287414550781
 31
0.0
  0
LINE
  5
1B6
330
1F
100
AcDbEntity
  8
TFR-TRI
  6
Continuous
 62
     1
100
AcDbLine
 10
33.23095321655273
 20
18.55586242675781
 30
0.0
 11
33.23095321655273
 21
18.49287414550781
 31
0.0
  0
LINE
  5
1B7
330
1F
100
AcDbEntity
  8
TFR-TRI
  6
Continuous
 62
     1
100
AcDbLine
 10
35.19945907592774
 20
18.49287414550781
 30
0.0
 11
35.19945907592774
 21
18.55586242675781
 31
0.0
  0
LINE
  5
1B8
330
1F
100
AcDbEntity
  8
TFR-TRI
  6
Continuous
 62
   251
100
AcDbLine
 10
42.2427635192871
 20
17.99423217773437
 30
0.0
 11
1.297878265380859
 21
17.99423217773437
 31
0.0
  0
LINE
  5
1B9
330
1F
100
AcDbEntity
  8
TFR-TRI
  6
Continuous
 62
   251
100
AcDbLine
 10
1.297878265380859
 20
17.99423217773437
 30
0.0
 11
1.297878265380859
 21
17.95944213867187
 31
0.0
  0
LINE
  5
1BA
330
1F
100
AcDbEntity
  8
TFR-TRI
  6
Continuous
 62
   251
100
AcDbLine
 10
1.297878265380859
 20
17.95944213867187
 30
0.0
 11
1.297878265380859
 21
17.88987731933594
 31
0.0
  0
LINE
  5
1BB
330
1F
100
AcDbEntity
  8
TFR-TRI
  6
Continuous
 62
   251
100
AcDbLine
 10
1.297878265380859
 20
17.88987731933594
 30
0.0
 11
1.297878265380859
 21
17.85508728027344
 31
0.0
  0
LINE
  5
1BC
330
1F
100
AcDbEntity
  8
TFR-TRI
  6
Continuous
 62
   251
100
AcDbLine
 10
42.2427635192871
 20
17.85508728027344
 30
0.0
 11
1.297878265380859
 21
17.85508728027344
 31
0.0
  0
LINE
  5
1BD
330
1F
100
AcDbEntity
  8
TFR-TRI
  6
Continuous
 62
   251
100
AcDbLine
 10
42.2427635192871
 20
17.99423217773437
 30
0.0
 11
42.2427635192871
 21
17.95944213867187
 31
0.0
  0
LINE
  5
1BE
330
1F
100
AcDbEntity
  8
TFR-TRI
  6
Continuous
 62
   251
100
AcDbLine
 10
42.2427635192871
 20
17.95944213867187
 30
0.0
 11
42.2427635192871
 21
17.88987731933594
 31
0.0
  0
LINE
  5
1BF
330
1F
100
AcDbEntity
  8
TFR-TRI
  6
Continuous
 62
   251
100
AcDbLine
 10
42.2427635192871
 20
17.88987731933594
 30
0.0
 11
42.2427635192871
 21
17.85508728027344
 31
0.0
  0
LINE
  5
1C0
330
1F
100
AcDbEntity
  8
TFR-TRI
  6
Continuous
 62
   251
100
AcDbLine
 10
1.297878265380859
 20
17.85508728027344
 30
0.0
 11
1.297878265380859
 21
17.83540344238281
 31
0.0
  0
LINE
  5
1C1
330
1F
100
AcDbEntity
  8
TFR-TRI
  6
Continuous
 62
   251
100
AcDbLine
 10
42.2427635192871
 20
17.83540344238281
 30
0.0
 11
1.297878265380859
 21
17.83540344238281
 31
0.0
  0
LINE
  5
1C2
330
1F
100
AcDbEntity
  8
TFR-TRI
  6
Continuous
 62
   251
100
AcDbLine
 10
42.2427635192871
 20
17.85508728027344
 30
0.0
 11
42.2427635192871
 21
17.83540344238281
 31
0.0
  0
LINE
  5
1C3
330
1F
100
AcDbEntity
  8
TFR-TRI
  6
Continuous
 62
   251
100
AcDbLine
 10
1.297878265380859
 20
17.83540344238281
 30
0.0
 11
1.297878265380859
 21
17.69619750976562
 31
0.0
  0
LINE
  5
1C4
330
1F
100
AcDbEntity
  8
TFR-TRI
  6
Continuous
 62
   251
100
AcDbLine
 10
42.2427635192871
 20
17.69619750976562
 30
0.0
 11
1.297878265380859
 21
17.69619750976562
 31
0.0
  0
LINE
  5
1C5
330
1F
100
AcDbEntity
  8
TFR-TRI
  6
Continuous
 62
   251
100
AcDbLine
 10
42.2427635192871
 20
17.83540344238281
 30
0.0
 11
42.2427635192871
 21
17.69619750976562
 31
0.0
  0
LINE
  5
1C6
330
1F
100
AcDbEntity
  8
TFR-TRI
  6
Continuous
 62
   251
100
AcDbLine
 10
1.297878265380859
 20
17.69619750976562
 30
0.0
 11
1.297878265380859
 21
16.10508728027344
 31
0.0
  0
LINE
  5
1C7
330
1F
100
AcDbEntity
  8
TFR-TRI
  6
Continuous
 62
   251
100
AcDbLine
 10
42.2427635192871
 20
16.10508728027344
 30
0.0
 11
1.297878265380859
 21
16.10508728027344
 31
0.0
  0
LINE
  5
1C8
330
1F
100
AcDbEntity
  8
TFR-TRI
  6
Continuous
 62
   251
100
AcDbLine
 10
42.2427635192871
 20
17.69619750976562
 30
0.0
 11
42.2427635192871
 21
16.10508728027344
 31
0.0
  0
ARC
  5
1C9
330
1F
100
AcDbEntity
  8
TFR-TRI
  6
Continuous
 62
     1
100
AcDbCircle
 10
-191.6928215026855
 20
17.98893737792969
 30
0.0
 40
0.031496062874794
100
AcDbArc
 50
270.0
 51
0.0
  0
ARC
  5
1CA
330
1F
100
AcDbEntity
  8
TFR-TRI
  6
Continuous
 62
     1
100
AcDbCircle
 10
-191.6928215026855
 20
17.98893737792969
 30
0.0
 40
0.094488188624382
100
AcDbArc
 50
270.0
 51
0.0
  0
ARC
  5
1CB
330
1F
100
AcDbEntity
  8
TFR-TRI
  6
Continuous
 62
     1
100
AcDbCircle
 10
-191.6928215026855
 20
18.46138000488281
 30
0.0
 40
0.094488188624382
100
AcDbArc
 50
0.0
 51
90.0
  0
ARC
  5
1CC
330
1F
100
AcDbEntity
  8
TFR-TRI
  6
Continuous
 62
     1
100
AcDbCircle
 10
-191.6928215026855
 20
18.46138000488281
 30
0.0
 40
0.031496062874794
100
AcDbArc
 50
0.0
 51
90.0
  0
ARC
  5
1CD
330
1F
100
AcDbEntity
  8
TFR-TRI
  6
Continuous
 62
   251
100
AcDbCircle
 10
-192.186710357666
 20
17.92465209960937
 30
0.0
 40
0.0302057284861803
100
AcDbArc
 50
90.0
 51
270.0
  0
ARC
  5
1CE
330
1F
100
AcDbEntity
  8
TFR-TRI
  6
Continuous
 62
   251
100
AcDbCircle
 10
-192.186710357666
 20
17.92465209960937
 30
0.0
 40
0.069575808942318
100
AcDbArc
 50
90.0
 51
270.0
  0
ARC
  5
1CF
330
1F
100
AcDbEntity
  8
TFR-TRI
  6
Continuous
 62
     1
100
AcDbCircle
 10
-114.7757606506347
 20
19.53343200683594
 30
0.0
 40
0.108267717063427
100
AcDbArc
 50
90.0
 51
270.0
  0
ARC
  5
1D0
330
1F
100
AcDbEntity
  8
TFR-TRI
  6
Continuous
 62
     1
100
AcDbCircle
 10
-114.5985908508301
 20
19.53343200683594
 30
0.0
 40
0.108267717063427
100
AcDbArc
 50
270.0
 51
90.0
  0
ARC
  5
1D1
330
1F
100
AcDbEntity
  8
TFR-TRI
  6
Continuous
 62
     1
100
AcDbCircle
 10
-133.5395698547363
 20
18.21492004394531
 30
0.0
 40
0.108267717063427
100
AcDbArc
 50
90.0
 51
270.0
  0
ARC
  5
1D2
330
1F
100
AcDbEntity
  8
TFR-TRI
  6
Continuous
 62
     1
100
AcDbCircle
 10
-133.3624000549316
 20
18.21492004394531
 30
0.0
 40
0.108267717063427
100
AcDbArc
 50
270.0
 51
90.0
  0
ARC
  5
1D3
330
1F
100
AcDbEntity
  8
TFR-TRI
  6
Continuous
 62
     1
100
AcDbCircle
 10
-132.7521705627441
 20
18.21492004394531
 30
0.0
 40
0.108267717063427
100
AcDbArc
 50
90.0
 51
270.0
  0
ARC
  5
1D4
330
1F
100
AcDbEntity
  8
TFR-TRI
  6
Continuous
 62
     1
100
AcDbCircle
 10
-132.5750007629394
 20
18.21492004394531
 30
0.0
 40
0.108267717063427
100
AcDbArc
 50
270.0
 51
90.0
  0
ARC
  5
1D5
330
1F
100
AcDbEntity
  8
TFR-TRI
  6
Continuous
 62
     1
100
AcDbCircle
 10
-95.83484268188476
 20
18.21492004394531
 30
0.0
 40
0.108267717063427
100
AcDbArc
 50
270.0
 51
90.0
  0
ARC
  5
1D6
330
1F
100
AcDbEntity
  8
TFR-TRI
  6
Continuous
 62
     1
100
AcDbCircle
 10
-96.01201248168946
 20
18.21492004394531
 30
0.0
 40
0.108267717063427
100
AcDbArc
 50
90.0
 51
270.0
  0
ARC
  5
1D7
330
1F
100
AcDbEntity
  8
TFR-TRI
  6
Continuous
 62
     1
100
AcDbCircle
 10
-96.62224197387695
 20
18.21492004394531
 30
0.0
 40
0.108267717063427
100
AcDbArc
 50
270.0
 51
90.0
  0
ARC
  5
1D8
330
1F
100
AcDbEntity
  8
TFR-TRI
  6
Continuous
 62
     1
100
AcDbCircle
 10
-96.79941177368164
 20
18.21492004394531
 30
0.0
 40
0.108267717063427
100
AcDbArc
 50
90.0
 51
270.0
  0
ARC
  5
1D9
330
1F
100
AcDbEntity
  8
TFR-TRI
  6
Continuous
 62
     1
100
AcDbCircle
 10
-42.83093643188476
 20
17.98893737792969
 30
0.0
 40
0.094488188624382
100
AcDbArc
 50
180.0
 51
270.0
  0
ARC
  5
1DA
330
1F
100
AcDbEntity
  8
TFR-TRI
  6
Continuous
 62
     1
100
AcDbCircle
 10
-42.83093643188476
 20
17.98893737792969
 30
0.0
 40
0.031496062874794
100
AcDbArc
 50
180.0
 51
270.0
  0
ARC
  5
1DB
330
1F
100
AcDbEntity
  8
TFR-TRI
  6
Continuous
 62
     1
100
AcDbCircle
 10
-42.83093643188476
 20
18.46138000488281
 30
0.0
 40
0.031496062874794
100
AcDbArc
 50
90.0
 51
180.0
  0
ARC
  5
1DC
330
1F
100
AcDbEntity
  8
TFR-TRI
  6
Continuous
 62
     1
100
AcDbCircle
 10
-42.83093643188476
 20
18.46138000488281
 30
0.0
 40
0.094488188624382
100
AcDbArc
 50
90.0
 51
180.0
  0
ARC
  5
1DD
330
1F
100
AcDbEntity
  8
TFR-TRI
  6
Continuous
 62
   251
100
AcDbCircle
 10
-42.33703994750976
 20
17.92465209960937
 30
0.0
 40
0.0302057284861803
100
AcDbArc
 50
270.0
 51
90.0
  0
ARC
  5
1DE
330
1F
100
AcDbEntity
  8
TFR-TRI
  6
Continuous
 62
   251
100
AcDbCircle
 10
-42.33703994750976
 20
17.92465209960937
 30
0.0
 40
0.069575808942318
100
AcDbArc
 50
270.0
 51
90.0
  0
ARC
  5
1DF
330
1F
100
AcDbEntity
  8
TFR-TRI
  6
Continuous
 62
     1
100
AcDbCircle
 10
21.85885238647461
 20
19.53343200683594
 30
0.0
 40
0.108267717063427
100
AcDbArc
 50
270.0
 51
90.0
  0
ARC
  5
1E0
330
1F
100
AcDbEntity
  8
TFR-TRI
  6
Continuous
 62
     1
100
AcDbCircle
 10
21.68169784545899
 20
19.53343200683594
 30
0.0
 40
0.108267717063427
100
AcDbArc
 50
90.0
 51
270.0
  0
ARC
  5
1E1
330
1F
100
AcDbEntity
  8
TFR-TRI
  6
Continuous
 62
     1
100
AcDbCircle
 10
40.62267684936523
 20
18.21492004394531
 30
0.0
 40
0.108267717063427
100
AcDbArc
 50
270.0
 51
90.0
  0
ARC
  5
1E2
330
1F
100
AcDbEntity
  8
TFR-TRI
  6
Continuous
 62
     1
100
AcDbCircle
 10
40.44552230834961
 20
18.21492004394531
 30
0.0
 40
0.108267717063427
100
AcDbArc
 50
90.0
 51
270.0
  0
ARC
  5
1E3
330
1F
100
AcDbEntity
  8
TFR-TRI
  6
Continuous
 62
     1
100
AcDbCircle
 10
39.83526229858398
 20
18.21492004394531
 30
0.0
 40
0.108267717063427
100
AcDbArc
 50
270.0
 51
90.0
  0
ARC
  5
1E4
330
1F
100
AcDbEntity
  8
TFR-TRI
  6
Continuous
 62
     1
100
AcDbCircle
 10
39.65810775756836
 20
18.21492004394531
 30
0.0
 40
0.108267717063427
100
AcDbArc
 50
90.0
 51
270.0
  0
ARC
  5
1E5
330
1F
100
AcDbEntity
  8
TFR-TRI
  6
Continuous
 62
     1
100
AcDbCircle
 10
2.917964935302734
 20
18.21492004394531
 30
0.0
 40
0.108267717063427
100
AcDbArc
 50
90.0
 51
270.0
  0
ARC
  5
1E6
330
1F
100
AcDbEntity
  8
TFR-TRI
  6
Continuous
 62
     1
100
AcDbCircle
 10
3.095119476318359
 20
18.21492004394531
 30
0.0
 40
0.108267717063427
100
AcDbArc
 50
270.0
 51
90.0
  0
ARC
  5
1E7
330
1F
100
AcDbEntity
  8
TFR-TRI
  6
Continuous
 62
     1
100
AcDbCircle
 10
3.705348968505859
 20
18.21492004394531
 30
0.0
 40
0.108267717063427
100
AcDbArc
 50
90.0
 51
270.0
  0
ARC
  5
1E8
330
1F
100
AcDbEntity
  8
TFR-TRI
  6
Continuous
 62
     1
100
AcDbCircle
 10
3.882503509521484
 20
18.21492004394531
 30
0.0
 40
0.108267717063427
100
AcDbArc
 50
270.0
 51
90.0
  0
ENDSEC
  0
SECTION
  2
OBJECTS
  0
DICTIONARY
  5
C
330
0
100
AcDbDictionary
281
     1
  3
ACAD_CIP_PREVIOUS_PRODUCT_INFO
350
244
  3
ACAD_COLOR
350
22C
  3
ACAD_GROUP
350
D
  3
ACAD_LAYOUT
350
1A
  3
ACAD_MATERIAL
350
3B
  3
ACAD_MLEADERSTYLE
350
220
  3
ACAD_MLINESTYLE
350
17
  3
ACAD_PLOTSETTINGS
350
19
  3
ACAD_PLOTSTYLENAME
350
E
  3
ACAD_SCALELIST
350
22E
  3
ACAD_TABLESTYLE
350
21F
  3
ACAD_VISUALSTYLE
350
2A
  3
ACDB_RECOMPOSE_DATA
350
30B
  3
AcDbVariableDictionary
350
2FE
  3
DWGPROPS
350
30C
  0
DICTIONARY
  5
245
330
10
100
AcDbDictionary
280
     1
281
     1
  3
ADSK_XREC_LAYER_RECONCILED
360
246
  0
DICTIONARY
  5
247
330
46
100
AcDbDictionary
280
     1
281
     1
  3
ADSK_XREC_LAYER_RECONCILED
360
248
  0
XRECORD
  5
244
102
{ACAD_REACTORS
330
C
102
}
330
C
100
AcDbXrecord
280
     1
300
ACD
300
2012
300
85730ACD_2012_0F
  0
DICTIONARY
  5
22C
102
{ACAD_REACTORS
330
C
102
}
330
C
100
AcDbDictionary
281
     1
  0
DICTIONARY
  5
D
102
{ACAD_REACTORS
330
C
102
}
330
C
100
AcDbDictionary
281
     1
  0
DICTIONARY
  5
1A
102
{ACAD_REACTORS
330
C
102
}
330
C
100
AcDbDictionary
281
     1
  3
Layout1
350
1E
  3
Layout2
350
26
  3
Model
350
22
  0
DICTIONARY
  5
3B
102
{ACAD_REACTORS
330
C
102
}
330
C
100
AcDbDictionary
281
     1
  3
BYBLOCK
350
3D
  3
BYLAYER
350
3C
  3
Global
350
3E
  0
DICTIONARY
  5
220
102
{ACAD_REACTORS
330
C
102
}
330
C
100
AcDbDictionary
281
     1
  3
Standard
350
240
  0
DICTIONARY
  5
17
102
{ACAD_REACTORS
330
C
102
}
330
C
100
AcDbDictionary
281
     1
  3
Standard
350
18
  0
DICTIONARY
  5
19
102
{ACAD_REACTORS
330
C
102
}
330
C
100
AcDbDictionary
281
     1
  0
ACDBDICTIONARYWDFLT
  5
E
102
{ACAD_REACTORS
330
C
102
}
330
C
100
AcDbDictionary
281
     1
  3
Normal
350
F
100
AcDbDictionaryWithDefault
340
F
  0
DICTIONARY
  5
22E
102
{ACAD_REACTORS
330
C
102
}
330
C
100
AcDbDictionary
281
     1
  3
A0
350
22F
  3
A1
350
230
  3
A2
350
231
  3
A3
350
232
  3
A4
350
233
  3
A5
350
234
  3
A6
350
235
  3
A7
350
236
  3
A8
350
237
  3
A9
350
238
  3
B0
350
239
  3
B1
350
23A
  3
B2
350
23B
  3
B3
350
23C
  3
B4
350
23D
  3
B5
350
23E
  3
B6
350
23F
  0
DICTIONARY
  5
21F
102
{ACAD_REACTORS
330
C
102
}
330
C
100
AcDbDictionary
281
     1
  3
Standard
350
22D
  0
DICTIONARY
  5
2A
102
{ACAD_REACTORS
330
C
102
}
330
C
100
AcDbDictionary
281
     1
  3
2dWireframe
350
2F
  3
3D Hidden
350
31
  3
3dWireframe
350
30
  3
Basic
350
32
  3
Brighten
350
36
  3
ColorChange
350
3A
  3
Conceptual
350
34
  3
Dim
350
35
  3
EdgeColorOff
350
22B
  3
Facepattern
350
39
  3
Flat
350
2B
  3
FlatWithEdges
350
2C
  3
Gouraud
350
2D
  3
GouraudWithEdges
350
2E
  3
Hidden
350
223
  3
JitterOff
350
229
  3
Linepattern
350
38
  3
OverhangOff
350
22A
  3
Realistic
350
33
  3
Shaded
350
228
  3
Shaded with edges
350
227
  3
Shades of Gray
350
224
  3
Sketchy
350
225
  3
Thicken
350
37
  3
Wireframe
350
222
  3
X-Ray
350
226
  0
XRECORD
  5
30B
102
{ACAD_REACTORS
330
C
102
}
330
C
100
AcDbXrecord
280
     1
 90
        1
330
22D
  0
DICTIONARY
  5
2FE
102
{ACAD_REACTORS
330
C
102
}
330
C
100
AcDbDictionary
281
     1
  3
CANNOSCALE
350
301
  3
CMLEADERSTYLE
350
300
  3
CTABLESTYLE
350
2FF
  3
DIMASSOC
350
306
  3
HIDETEXT
350
304
  3
INDEXCTL
350
303
  3
SORTENTS
350
302
  3
XCLIPFRAME
350
305
  0
XRECORD
  5
30C
102
{ACAD_REACTORS
330
C
102
}
330
C
100
AcDbXrecord
280
     1
  1
DWGPROPS COOKIE
  2

  3

  4

  6

  7

  8
mdca
  9

300
=
301
=
302
=
303
=
304
=
305
=
306
=
307
=
308
=
309
=
 40
0.0025089814814815
 41
2456826.382679896
 42
2456826.3855364
  1

 90
        0
  0
XRECORD
  5
246
102
{ACAD_REACTORS
330
245
102
}
330
245
100
AcDbXrecord
280
     1
290
     1
  0
XRECORD
  5
248
102
{ACAD_REACTORS
330
247
102
}
330
247
100
AcDbXrecord
280
     1
290
     1
  0
LAYOUT
  5
1E
102
{ACAD_XDICTIONARY
360
30D
102
}
102
{ACAD_REACTORS
330
1A
102
}
330
1A
100
AcDbPlotSettings
  1

  2
none_device
  4

  6

 40
0.0
 41
0.0
 42
0.0
 43
0.0
 44
0.0
 45
0.0
 46
0.0
 47
0.0
 48
0.0
 49
0.0
140
0.0
141
0.0
142
1.0
143
1.0
 70
   688
 72
     0
 73
     0
 74
     5
  7

 75
    16
147
1.0
148
0.0
149
0.0
100
AcDbLayout
  1
Layout1
 70
     1
 71
     1
 10
-0.5
 20
-0.5
 11
5.0
 21
5.0
 12
0.0
 22
0.0
 32
0.0
 14
-0.5
 24
-0.5
 34
-0.5
 15
5.0
 25
5.0
 35
5.0
146
0.0
 13
0.0
 23
0.0
 33
0.0
 16
1.0
 26
0.0
 36
0.0
 17
0.0
 27
1.0
 37
0.0
 76
     0
330
1B
  0
LAYOUT
  5
26
102
{ACAD_XDICTIONARY
360
311
102
}
102
{ACAD_REACTORS
330
1A
102
}
330
1A
100
AcDbPlotSettings
  1

  2
none_device
  4

  6

 40
0.0
 41
0.0
 42
0.0
 43
0.0
 44
0.0
 45
0.0
 46
0.0
 47
0.0
 48
0.0
 49
0.0
140
0.0
141
0.0
142
1.0
143
1.0
 70
   688
 72
     0
 73
     0
 74
     5
  7

 75
    16
147
1.0
148
0.0
149
0.0
100
AcDbLayout
  1
Layout2
 70
     1
 71
     2
 10
0.0
 20
0.0
 11
0.0
 21
0.0
 12
0.0
 22
0.0
 32
0.0
 14
0.0
 24
0.0
 34
0.0
 15
0.0
 25
0.0
 35
0.0
146
0.0
 13
0.0
 23
0.0
 33
0.0
 16
1.0
 26
0.0
 36
0.0
 17
0.0
 27
1.0
 37
0.0
 76
     0
330
23
  0
LAYOUT
  5
22
102
{ACAD_XDICTIONARY
360
30F
102
}
102
{ACAD_REACTORS
330
1A
102
}
330
1A
100
AcDbPlotSettings
  1

  2
none_device
  4

  6

 40
0.0
 41
0.0
 42
0.0
 43
0.0
 44
0.0
 45
0.0
 46
0.0
 47
0.0
 48
0.0
 49
0.0
140
0.0
141
0.0
142
1.0
143
1.0
 70
  1712
 72
     0
 73
     0
 74
     0
  7

 75
     0
147
1.0
148
0.0
149
0.0
100
AcDbLayout
  1
Model
 70
     1
 71
     0
 10
-0.5
 20
-0.5
 11
5.0
 21
5.0
 12
0.0
 22
0.0
 32
0.0
 14
-0.5
 24
-0.5
 34
-0.5
 15
5.0
 25
5.0
 35
5.0
146
0.0
 13
0.0
 23
0.0
 33
0.0
 16
1.0
 26
0.0
 36
0.0
 17
0.0
 27
1.0
 37
0.0
 76
     0
330
1F
331
1E9
  0
MATERIAL
  5
3D
102
{ACAD_XDICTIONARY
360
335
102
}
102
{ACAD_REACTORS
330
3B
102
}
330
3B
100
AcDbMaterial
  1
BYBLOCK
 73
     1
 78
     1
172
     1
176
     1
270
     1
274
     1
  0
MATERIAL
  5
3C
102
{ACAD_XDICTIONARY
360
333
102
}
102
{ACAD_REACTORS
330
3B
102
}
330
3B
100
AcDbMaterial
  1
BYLAYER
 73
     1
 78
     1
172
     1
176
     1
270
     1
274
     1
  0
MATERIAL
  5
3E
102
{ACAD_XDICTIONARY
360
337
102
}
102
{ACAD_REACTORS
330
3B
102
}
330
3B
100
AcDbMaterial
  1
Global
 73
     1
 78
     1
172
     1
176
     1
270
     1
274
     1
  0
MLEADERSTYLE
  5
240
102
{ACAD_XDICTIONARY
360
309
102
}
102
{ACAD_REACTORS
330
220
102
}
330
220
100
AcDbMLeaderStyle
170
     2
171
     1
172
     0
 90
        2
 40
0.0
 41
0.0
173
     1
 91
-1056964608
340
14
 92
       -2
290
     1
 42
0.09
291
     1
 43
0.36
  3
Standard
 44
0.18
300

342
11
174
     1
178
     6
175
     1
176
     0
 93
-1056964608
 45
0.18
292
     0
297
     0
 46
0.18
 94
-1056964608
 47
1.0
 49
1.0
140
1.0
293
     1
141
0.0
294
     1
177
     0
142
1.0
295
     0
296
     0
143
0.125
1001
ACAD_MLEADERVER
1070
     2
  0
MLINESTYLE
  5
18
102
{ACAD_REACTORS
330
17
102
}
330
17
100
AcDbMlineStyle
  2
STANDARD
 70
     0
  3

 62
   256
 51
90.0
 52
90.0
 71
     2
 49
0.5
 62
   256
  6
BYLAYER
 49
-0.5
 62
   256
  6
BYLAYER
  0
ACDBPLACEHOLDER
  5
F
102
{ACAD_REACTORS
330
E
102
}
330
E
  0
SCALE
  5
22F
102
{ACAD_REACTORS
330
22E
102
}
330
22E
100
AcDbScale
 70
     0
300
1:1
140
1.0
141
1.0
290
     1
  0
SCALE
  5
230
102
{ACAD_REACTORS
330
22E
102
}
330
22E
100
AcDbScale
 70
     0
300
1/128" = 1'-0"
140
0.0078125
141
12.0
290
     0
  0
SCALE
  5
231
102
{ACAD_REACTORS
330
22E
102
}
330
22E
100
AcDbScale
 70
     0
300
1/64" = 1'-0"
140
0.015625
141
12.0
290
     0
  0
SCALE
  5
232
102
{ACAD_REACTORS
330
22E
102
}
330
22E
100
AcDbScale
 70
     0
300
1/32" = 1'-0"
140
0.03125
141
12.0
290
     0
  0
SCALE
  5
233
102
{ACAD_REACTORS
330
22E
102
}
330
22E
100
AcDbScale
 70
     0
300
1/16" = 1'-0"
140
0.0625
141
12.0
290
     0
  0
SCALE
  5
234
102
{ACAD_REACTORS
330
22E
102
}
330
22E
100
AcDbScale
 70
     0
300
3/32" = 1'-0"
140
0.09375
141
12.0
290
     0
  0
SCALE
  5
235
102
{ACAD_REACTORS
330
22E
102
}
330
22E
100
AcDbScale
 70
     0
300
1/8" = 1'-0"
140
0.125
141
12.0
290
     0
  0
SCALE
  5
236
102
{ACAD_REACTORS
330
22E
102
}
330
22E
100
AcDbScale
 70
     0
300
3/16" = 1'-0"
140
0.1875
141
12.0
290
     0
  0
SCALE
  5
237
102
{ACAD_REACTORS
330
22E
102
}
330
22E
100
AcDbScale
 70
     0
300
1/4" = 1'-0"
140
0.25
141
12.0
290
     0
  0
SCALE
  5
238
102
{ACAD_REACTORS
330
22E
102
}
330
22E
100
AcDbScale
 70
     0
300
3/8" = 1'-0"
140
0.375
141
12.0
290
     0
  0
SCALE
  5
239
102
{ACAD_REACTORS
330
22E
102
}
330
22E
100
AcDbScale
 70
     0
300
1/2" = 1'-0"
140
0.5
141
12.0
290
     0
  0
SCALE
  5
23A
102
{ACAD_REACTORS
330
22E
102
}
330
22E
100
AcDbScale
 70
     0
300
3/4" = 1'-0"
140
0.75
141
12.0
290
     0
  0
SCALE
  5
23B
102
{ACAD_REACTORS
330
22E
102
}
330
22E
100
AcDbScale
 70
     0
300
1" = 1'-0"
140
1.0
141
12.0
290
     0
  0
SCALE
  5
23C
102
{ACAD_REACTORS
330
22E
102
}
330
22E
100
AcDbScale
 70
     0
300
1-1/2" = 1'-0"
140
1.5
141
12.0
290
     0
  0
SCALE
  5
23D
102
{ACAD_REACTORS
330
22E
102
}
330
22E
100
AcDbScale
 70
     0
300
3" = 1'-0"
140
3.0
141
12.0
290
     0
  0
SCALE
  5
23E
102
{ACAD_REACTORS
330
22E
102
}
330
22E
100
AcDbScale
 70
     0
300
6" = 1'-0"
140
6.0
141
12.0
290
     0
  0
SCALE
  5
23F
102
{ACAD_REACTORS
330
22E
102
}
330
22E
100
AcDbScale
 70
     0
300
1'-0" = 1'-0"
140
12.0
141
12.0
290
     0
  0
TABLESTYLE
  5
22D
102
{ACAD_XDICTIONARY
360
307
102
}
102
{ACAD_REACTORS
330
21F
102
}
330
21F
100
AcDbTableStyle
  3
Standard
 70
     0
 71
     0
 40
0.06
 41
0.06
280
     0
281
     0
  7
Standard
140
0.18
170
     2
 62
     0
 63
     7
283
     0
274
    -2
284
     1
 64
     0
275
    -2
285
     1
 65
     0
276
    -2
286
     1
 66
     0
277
    -2
287
     1
 67
     0
278
    -2
288
     1
 68
     0
279
    -2
289
     1
 69
     0
  7
Standard
140
0.25
170
     5
 62
     0
 63
     7
283
     0
274
    -2
284
     1
 64
     0
275
    -2
285
     1
 65
     0
276
    -2
286
     1
 66
     0
277
    -2
287
     1
 67
     0
278
    -2
288
     1
 68
     0
279
    -2
289
     1
 69
     0
  7
Standard
140
0.18
170
     5
 62
     0
 63
     7
283
     0
274
    -2
284
     1
 64
     0
275
    -2
285
     1
 65
     0
276
    -2
286
     1
 66
     0
277
    -2
287
     1
 67
     0
278
    -2
288
     1
 68
     0
279
    -2
289
     1
 69
     0
  0
VISUALSTYLE
  5
2F
102
{ACAD_XDICTIONARY
360
31B
102
}
102
{ACAD_REACTORS
330
2A
102
}
330
2A
100
AcDbVisualStyle
  2
2dWireframe
 70
     4
 71
     0
 72
     2
 73
     0
 90
        0
 40
-0.6
 41
-30.0
 62
     5
 63
     7
 74
     1
 91
        4
 64
     7
 65
   257
 75
     1
175
     1
 42
1.0
 92
        0
 66
   257
 43
1.0
 76
     1
 77
     6
 78
     2
 67
     7
 79
     5
170
     0
171
     0
290
     0
174
     0
 93
        1
 44
0.0
173
     0
291
     0
 45
0.0
1001
ACAD
1000
AcDbSavedByObjectVersion
1070
     0
  0
VISUALSTYLE
  5
31
102
{ACAD_XDICTIONARY
360
31F
102
}
102
{ACAD_REACTORS
330
2A
102
}
330
2A
100
AcDbVisualStyle
  2
3D Hidden
 70
     6
 71
     1
 72
     2
 73
     2
 90
        0
 40
-0.6
 41
-30.0
 62
     5
 63
     7
 74
     2
 91
        2
 64
     7
 65
   257
 75
     2
175
     1
 42
40.0
 92
        0
 66
   257
 43
1.0
 76
     1
 77
     6
 78
     2
 67
     7
 79
     3
170
     0
171
     0
290
     0
174
     0
 93
        1
 44
0.0
173
     0
291
     0
 45
0.0
1001
ACAD
1000
AcDbSavedByObjectVersion
1070
     0
  0
VISUALSTYLE
  5
30
102
{ACAD_XDICTIONARY
360
31D
102
}
102
{ACAD_REACTORS
330
2A
102
}
330
2A
100
AcDbVisualStyle
  2
3dWireframe
 70
     5
 71
     0
 72
     2
 73
     0
 90
        0
 40
-0.6
 41
-30.0
 62
     5
 63
     7
 74
     1
 91
        4
 64
     7
 65
   257
 75
     1
175
     1
 42
1.0
 92
        0
 66
   257
 43
1.0
 76
     1
 77
     6
 78
     2
 67
     7
 79
     5
170
     0
171
     0
290
     0
174
     0
 93
        1
 44
0.0
173
     0
291
     0
 45
0.0
1001
ACAD
1000
AcDbSavedByObjectVersion
1070
     0
  0
VISUALSTYLE
  5
32
102
{ACAD_XDICTIONARY
360
321
102
}
102
{ACAD_REACTORS
330
2A
102
}
330
2A
100
AcDbVisualStyle
  2
Basic
 70
     7
 71
     1
 72
     0
 73
     1
 90
        0
 40
-0.6
 41
-30.0
 62
     5
 63
     7
 74
     0
 91
        4
 64
     7
 65
   257
 75
     1
175
     1
 42
1.0
 92
        8
 66
     7
 43
1.0
 76
     1
 77
     6
 78
     2
 67
     7
 79
     5
170
     0
171
     0
290
     0
174
     0
 93
        1
 44
0.0
173
     0
291
     1
 45
0.0
1001
ACAD
1000
AcDbSavedByObjectVersion
1070
     0
  0
VISUALSTYLE
  5
36
102
{ACAD_XDICTIONARY
360
329
102
}
102
{ACAD_REACTORS
330
2A
102
}
330
2A
100
AcDbVisualStyle
  2
Brighten
 70
    12
 71
     2
 72
     2
 73
     0
 90
        0
 40
-0.6
 41
-30.0
 62
     5
 63
     7
 74
     1
 91
        4
 64
     7
 65
   257
 75
     1
175
     1
 42
1.0
 92
        8
 66
     7
 43
1.0
 76
     1
 77
     6
 78
     2
 67
     7
 79
     5
170
     0
171
     0
290
     0
174
     0
 93
        1
 44
50.0
173
     0
291
     1
 45
0.0
1001
ACAD
1000
AcDbSavedByObjectVersion
1070
     0
  0
VISUALSTYLE
  5
3A
102
{ACAD_XDICTIONARY
360
331
102
}
102
{ACAD_REACTORS
330
2A
102
}
330
2A
100
AcDbVisualStyle
  2
ColorChange
 70
    16
 71
     2
 72
     2
 73
     3
 90
        0
 40
-0.6
 41
-30.0
 62
     5
 63
     8
 74
     1
 91
        4
 64
     7
 65
   257
 75
     1
175
     1
 42
1.0
 92
        8
 66
     8
 43
1.0
 76
     1
 77
     6
 78
     2
 67
     7
 79
     5
170
     0
171
     0
290
     0
174
     0
 93
        1
 44
0.0
173
     0
291
     1
 45
0.0
1001
ACAD
1000
AcDbSavedByObjectVersion
1070
     0
  0
VISUALSTYLE
  5
34
102
{ACAD_XDICTIONARY
360
325
102
}
102
{ACAD_REACTORS
330
2A
102
}
330
2A
100
AcDbVisualStyle
  2
Conceptual
 70
     9
 71
     3
 72
     2
 73
     0
 90
        0
 40
-0.6
 41
-30.0
 62
     5
 63
     7
 74
     2
 91
        2
 64
     7
 65
   257
 75
     1
175
     1
 42
40.0
 92
        8
 66
     7
 43
1.0
 76
     1
 77
     6
 78
     2
 67
     7
 79
     3
170
     0
171
     0
290
     0
174
     0
 93
        1
 44
0.0
173
     0
291
     0
 45
0.0
1001
ACAD
1000
AcDbSavedByObjectVersion
1070
     0
  0
VISUALSTYLE
  5
35
102
{ACAD_XDICTIONARY
360
327
102
}
102
{ACAD_REACTORS
330
2A
102
}
330
2A
100
AcDbVisualStyle
  2
Dim
 70
    11
 71
     2
 72
     2
 73
     0
 90
        0
 40
-0.6
 41
-30.0
 62
     5
 63
     7
 74
     1
 91
        4
 64
     7
 65
   257
 75
     1
175
     1
 42
1.0
 92
        8
 66
     7
 43
1.0
 76
     1
 77
     6
 78
     2
 67
     7
 79
     5
170
     0
171
     0
290
     0
174
     0
 93
        1
 44
-50.0
173
     0
291
     1
 45
0.0
1001
ACAD
1000
AcDbSavedByObjectVersion
1070
     0
  0
VISUALSTYLE
  5
22B
102
{ACAD_XDICTIONARY
360
34B
102
}
102
{ACAD_REACTORS
330
2A
102
}
330
2A
100
AcDbVisualStyle
  2
EdgeColorOff
 70
    22
 71
     2
 72
     2
 73
     0
 90
        0
 40
-0.6
 41
-30.0
 62
     5
 63
     7
 74
     1
 91
        4
 64
     7
 65
   257
 75
     1
175
     1
 42
1.0
 92
        8
 66
     7
 43
1.0
 76
     1
 77
     6
 78
     2
 67
     7
 79
     5
170
     0
171
     0
290
     0
174
     0
 93
        1
 44
0.0
173
     0
291
     1
 45
0.0
1001
ACAD
1000
AcDbSavedByObjectVersion
1070
     0
  0
VISUALSTYLE
  5
39
102
{ACAD_XDICTIONARY
360
32F
102
}
102
{ACAD_REACTORS
330
2A
102
}
330
2A
100
AcDbVisualStyle
  2
Facepattern
 70
    15
 71
     2
 72
     2
 73
     0
 90
        0
 40
-0.6
 41
-30.0
 62
     5
 63
     7
 74
     1
 91
        4
 64
     7
 65
   257
 75
     1
175
     1
 42
1.0
 92
        8
 66
     7
 43
1.0
 76
     1
 77
     6
 78
     2
 67
     7
 79
     5
170
     0
171
     0
290
     0
174
     0
 93
        1
 44
0.0
173
     0
291
     1
 45
0.0
1001
ACAD
1000
AcDbSavedByObjectVersion
1070
     0
  0
VISUALSTYLE
  5
2B
102
{ACAD_XDICTIONARY
360
313
102
}
102
{ACAD_REACTORS
330
2A
102
}
330
2A
100
AcDbVisualStyle
  2
Flat
 70
     0
 71
     2
 72
     1
 73
     1
 90
        2
 40
-0.6
 41
30.0
 62
     5
 63
     7
 74
     0
 91
        4
 64
     7
 65
   257
 75
     1
175
     1
 42
1.0
 92
        8
 66
     7
 43
1.0
 76
     1
 77
     6
 78
     2
 67
     7
 79
     5
170
     0
171
     0
290
     0
174
     0
 93
       13
 44
0.0
173
     0
291
     1
 45
0.0
1001
ACAD
1000
AcDbSavedByObjectVersion
1070
     0
  0
VISUALSTYLE
  5
2C
102
{ACAD_XDICTIONARY
360
315
102
}
102
{ACAD_REACTORS
330
2A
102
}
330
2A
100
AcDbVisualStyle
  2
FlatWithEdges
 70
     1
 71
     2
 72
     1
 73
     1
 90
        2
 40
-0.6
 41
30.0
 62
     5
 63
     7
 74
     1
 91
        4
 64
     7
 65
   257
 75
     1
175
     1
 42
1.0
 92
        0
 66
   257
 43
1.0
 76
     1
 77
     6
 78
     2
 67
     7
 79
     5
170
     0
171
     0
290
     0
174
     0
 93
       13
 44
0.0
173
     0
291
     1
 45
0.0
1001
ACAD
1000
AcDbSavedByObjectVersion
1070
     0
  0
VISUALSTYLE
  5
2D
102
{ACAD_XDICTIONARY
360
317
102
}
102
{ACAD_REACTORS
330
2A
102
}
330
2A
100
AcDbVisualStyle
  2
Gouraud
 70
     2
 71
     2
 72
     2
 73
     1
 90
        2
 40
-0.6
 41
30.0
 62
     5
 63
     7
 74
     0
 91
        4
 64
     7
 65
   257
 75
     1
175
     1
 42
1.0
 92
        0
 66
     7
 43
1.0
 76
     1
 77
     6
 78
     2
 67
     7
 79
     5
170
     0
171
     0
290
     0
174
     0
 93
       13
 44
0.0
173
     0
291
     1
 45
0.0
1001
ACAD
1000
AcDbSavedByObjectVersion
1070
     0
  0
VISUALSTYLE
  5
2E
102
{ACAD_XDICTIONARY
360
319
102
}
102
{ACAD_REACTORS
330
2A
102
}
330
2A
100
AcDbVisualStyle
  2
GouraudWithEdges
 70
     3
 71
     2
 72
     2
 73
     1
 90
        2
 40
-0.6
 41
30.0
 62
     5
 63
     7
 74
     1
 91
        4
 64
     7
 65
   257
 75
     1
175
     1
 42
1.0
 92
        0
 66
   257
 43
1.0
 76
     1
 77
     6
 78
     2
 67
     7
 79
     5
170
     0
171
     0
290
     0
174
     0
 93
       13
 44
0.0
173
     0
291
     1
 45
0.0
1001
ACAD
1000
AcDbSavedByObjectVersion
1070
     0
  0
VISUALSTYLE
  5
223
102
{ACAD_XDICTIONARY
360
33B
102
}
102
{ACAD_REACTORS
330
2A
102
}
330
2A
100
AcDbVisualStyle
  2
Hidden
 70
     6
 71
     1
 72
     2
 73
     2
 90
        0
 40
-0.6
 41
-30.0
 62
     5
 63
     7
 74
     2
 91
        2
 64
     7
 65
   257
 75
     2
175
     1
 42
40.0
 92
        0
 66
   257
 43
1.0
 76
     1
 77
     6
 78
     2
 67
     7
 79
     3
170
     0
171
     0
290
     0
174
     0
 93
        1
 44
0.0
173
     0
291
     0
 45
0.0
1001
ACAD
1000
AcDbSavedByObjectVersion
1070
     0
  0
VISUALSTYLE
  5
229
102
{ACAD_XDICTIONARY
360
347
102
}
102
{ACAD_REACTORS
330
2A
102
}
330
2A
100
AcDbVisualStyle
  2
JitterOff
 70
    20
 71
     2
 72
     2
 73
     0
 90
        0
 40
-0.6
 41
-30.0
 62
     5
 63
     7
 74
     1
 91
        4
 64
     7
 65
   257
 75
     1
175
     1
 42
1.0
 92
       10
 66
     7
 43
1.0
 76
     1
 77
     6
 78
     2
 67
     7
 79
     5
170
     0
171
     0
290
     0
174
     0
 93
        1
 44
0.0
173
     0
291
     1
 45
0.0
1001
ACAD
1000
AcDbSavedByObjectVersion
1070
     0
  0
VISUALSTYLE
  5
38
102
{ACAD_XDICTIONARY
360
32D
102
}
102
{ACAD_REACTORS
330
2A
102
}
330
2A
100
AcDbVisualStyle
  2
Linepattern
 70
    14
 71
     2
 72
     2
 73
     0
 90
        0
 40
-0.6
 41
-30.0
 62
     5
 63
     7
 74
     1
 91
        4
 64
     7
 65
   257
 75
     7
175
     7
 42
1.0
 92
        8
 66
     7
 43
1.0
 76
     1
 77
     6
 78
     2
 67
     7
 79
     5
170
     0
171
     0
290
     0
174
     0
 93
        1
 44
0.0
173
     0
291
     1
 45
0.0
1001
ACAD
1000
AcDbSavedByObjectVersion
1070
     0
  0
VISUALSTYLE
  5
22A
102
{ACAD_XDICTIONARY
360
349
102
}
102
{ACAD_REACTORS
330
2A
102
}
330
2A
100
AcDbVisualStyle
  2
OverhangOff
 70
    21
 71
     2
 72
     2
 73
     0
 90
        0
 40
-0.6
 41
-30.0
 62
     5
 63
     7
 74
     1
 91
        4
 64
     7
 65
   257
 75
     1
175
     1
 42
1.0
 92
        9
 66
     7
 43
1.0
 76
     1
 77
     6
 78
     2
 67
     7
 79
     5
170
     0
171
     0
290
     0
174
     0
 93
        1
 44
0.0
173
     0
291
     1
 45
0.0
1001
ACAD
1000
AcDbSavedByObjectVersion
1070
     0
  0
VISUALSTYLE
  5
33
102
{ACAD_XDICTIONARY
360
323
102
}
102
{ACAD_REACTORS
330
2A
102
}
330
2A
100
AcDbVisualStyle
  2
Realistic
 70
     8
 71
     2
 72
     2
 73
     0
 90
        0
 40
-0.6
 41
-30.0
 62
     5
 63
     7
 74
     1
 91
        0
 64
     7
 65
   257
 75
     1
175
     1
 42
1.0
 92
        8
 66
     8
 43
1.0
 76
     1
 77
     6
 78
     2
 67
     7
 79
     5
170
     0
171
     0
290
     0
174
     0
 93
       13
 44
0.0
173
     0
291
     0
 45
0.0
1001
ACAD
1000
AcDbSavedByObjectVersion
1070
     0
  0
VISUALSTYLE
  5
228
102
{ACAD_XDICTIONARY
360
345
102
}
102
{ACAD_REACTORS
330
2A
102
}
330
2A
100
AcDbVisualStyle
  2
Shaded
 70
    27
 71
     2
 72
     2
 73
     1
 90
        2
 40
-0.6
 41
30.0
 62
     5
 63
     7
 74
     0
 91
        4
 64
     7
 65
   257
 75
     1
175
     1
 42
1.0
 92
        8
 66
   257
 43
1.0
 76
     1
 77
     6
 78
     2
 67
     8
 79
     3
170
     0
171
     0
290
     0
174
     0
 93
        5
 44
0.0
173
     0
291
     0
 45
0.0
1001
ACAD
1000
AcDbSavedByObjectVersion
1070
     0
  0
VISUALSTYLE
  5
227
102
{ACAD_XDICTIONARY
360
343
102
}
102
{ACAD_REACTORS
330
2A
102
}
330
2A
100
AcDbVisualStyle
  2
Shaded with edges
 70
    26
 71
     2
 72
     2
 73
     1
 90
        2
 40
-0.6
 41
30.0
 62
     5
 63
     7
 74
     1
 91
       10
 64
     7
 65
   257
 75
     2
175
     1
 42
1.0
 92
        8
 66
   257
 43
1.0
 76
     1
 77
     6
 78
     2
 67
     7
 79
     3
170
     0
171
     0
290
     0
174
     0
 93
        5
 44
0.0
173
     0
291
     0
 45
0.0
1001
ACAD
1000
AcDbSavedByObjectVersion
1070
     0
  0
VISUALSTYLE
  5
224
102
{ACAD_XDICTIONARY
360
33D
102
}
102
{ACAD_REACTORS
330
2A
102
}
330
2A
100
AcDbVisualStyle
  2
Shades of Gray
 70
    23
 71
     2
 72
     2
 73
     3
 90
        0
 40
-0.6
 41
-30.0
 62
     5
 63
     7
 74
     2
 91
        2
 64
     7
 65
     7
 75
     1
175
     1
 42
40.0
 92
        8
 66
     7
 43
1.0
 76
     1
 77
     6
 78
     2
 67
     7
 79
     3
170
     0
171
     0
290
     0
174
     0
 93
        1
 44
0.0
173
     0
291
     0
 45
0.0
1001
ACAD
1000
AcDbSavedByObjectVersion
1070
     0
  0
VISUALSTYLE
  5
225
102
{ACAD_XDICTIONARY
360
33F
102
}
102
{ACAD_REACTORS
330
2A
102
}
330
2A
100
AcDbVisualStyle
  2
Sketchy
 70
    24
 71
     1
 72
     2
 73
     2
 90
        0
 40
-0.6
 41
-30.0
 62
     5
 63
     7
 74
     2
 91
        2
 64
     7
 65
     7
 75
     1
175
     1
 42
40.0
 92
       11
 66
     7
 43
1.0
 76
     1
 77
     6
 78
     2
 67
     7
 79
     6
170
     0
171
     0
290
     0
174
     0
 93
        1
 44
0.0
173
     0
291
     0
 45
0.0
1001
ACAD
1000
AcDbSavedByObjectVersion
1070
     0
  0
VISUALSTYLE
  5
37
102
{ACAD_XDICTIONARY
360
32B
102
}
102
{ACAD_REACTORS
330
2A
102
}
330
2A
100
AcDbVisualStyle
  2
Thicken
 70
    13
 71
     2
 72
     2
 73
     0
 90
        0
 40
-0.6
 41
-30.0
 62
     5
 63
     7
 74
     1
 91
        4
 64
     7
 65
   257
 75
     1
175
     1
 42
1.0
 92
       12
 66
     7
 43
1.0
 76
     1
 77
     6
 78
     2
 67
     7
 79
     5
170
     0
171
     0
290
     0
174
     0
 93
        1
 44
0.0
173
     0
291
     1
 45
0.0
1001
ACAD
1000
AcDbSavedByObjectVersion
1070
     0
  0
VISUALSTYLE
  5
222
102
{ACAD_XDICTIONARY
360
339
102
}
102
{ACAD_REACTORS
330
2A
102
}
330
2A
100
AcDbVisualStyle
  2
Wireframe
 70
     5
 71
     0
 72
     2
 73
     0
 90
        0
 40
-0.6
 41
-30.0
 62
     5
 63
     7
 74
     1
 91
        4
 64
     7
 65
   257
 75
     1
175
     1
 42
1.0
 92
        0
 66
   257
 43
1.0
 76
     1
 77
     6
 78
     2
 67
     7
 79
     3
170
     0
171
     0
290
     0
174
     0
 93
        1
 44
0.0
173
     0
291
     0
 45
0.0
1001
ACAD
1000
AcDbSavedByObjectVersion
1070
     0
  0
VISUALSTYLE
  5
226
102
{ACAD_XDICTIONARY
360
341
102
}
102
{ACAD_REACTORS
330
2A
102
}
330
2A
100
AcDbVisualStyle
  2
X-Ray
 70
    25
 71
     2
 72
     2
 73
     1
 90
        1
 40
0.5
 41
-30.0
 62
     5
 63
     7
 74
     1
 91
        0
 64
     7
 65
   257
 75
     1
175
     1
 42
1.0
 92
        8
 66
     7
 43
1.0
 76
     1
 77
     6
 78
     2
 67
     7
 79
     3
170
     0
171
     0
290
     0
174
     0
 93
       13
 44
0.0
173
     0
291
     0
 45
0.0
1001
ACAD
1000
AcDbSavedByObjectVersion
1070
     0
  0
DICTIONARYVAR
  5
301
102
{ACAD_REACTORS
330
2FE
102
}
330
2FE
100
DictionaryVariables
280
     0
  1
1:1
  0
DICTIONARYVAR
  5
300
102
{ACAD_REACTORS
330
2FE
102
}
330
2FE
100
DictionaryVariables
280
     0
  1
STANDARD
  0
DICTIONARYVAR
  5
2FF
102
{ACAD_REACTORS
330
2FE
102
}
330
2FE
100
DictionaryVariables
280
     0
  1
STANDARD
  0
DICTIONARYVAR
  5
306
102
{ACAD_REACTORS
330
2FE
102
}
330
2FE
100
DictionaryVariables
280
     0
  1
2
  0
DICTIONARYVAR
  5
304
102
{ACAD_REACTORS
330
2FE
102
}
330
2FE
100
DictionaryVariables
280
     0
  1
1
  0
DICTIONARYVAR
  5
303
102
{ACAD_REACTORS
330
2FE
102
}
330
2FE
100
DictionaryVariables
280
     0
  1
0
  0
DICTIONARYVAR
  5
302
102
{ACAD_REACTORS
330
2FE
102
}
330
2FE
100
DictionaryVariables
280
     0
  1
127
  0
DICTIONARYVAR
  5
305
102
{ACAD_REACTORS
330
2FE
102
}
330
2FE
100
DictionaryVariables
280
     0
  1
0
  0
DICTIONARY
  5
30D
330
1E
100
AcDbDictionary
280
     1
281
     1
  3
ACAD_XREC_ROUNDTRIP
360
30E
  0
DICTIONARY
  5
311
330
26
100
AcDbDictionary
280
     1
281
     1
  3
ACAD_XREC_ROUNDTRIP
360
312
  0
DICTIONARY
  5
30F
330
22
100
AcDbDictionary
280
     1
281
     1
  3
ACAD_XREC_ROUNDTRIP
360
310
  0
DICTIONARY
  5
335
330
3D
100
AcDbDictionary
280
     1
281
     1
  3
ACAD_XREC_ROUNDTRIP
360
336
  0
DICTIONARY
  5
333
330
3C
100
AcDbDictionary
280
     1
281
     1
  3
ACAD_XREC_ROUNDTRIP
360
334
  0
DICTIONARY
  5
337
330
3E
100
AcDbDictionary
280
     1
281
     1
  3
ACAD_XREC_ROUNDTRIP
360
338
  0
DICTIONARY
  5
309
330
240
100
AcDbDictionary
280
     1
281
     1
  3
ACAD_XREC_ROUNDTRIP
360
30A
  0
DICTIONARY
  5
307
330
22D
100
AcDbDictionary
280
     1
281
     1
  3
ACAD_ROUNDTRIP_2008_TABLESTYLE_CELLSTYLEMAP
360
308
  3
ACAD_XREC_ROUNDTRIP
360
34D
  0
DICTIONARY
  5
31B
330
2F
100
AcDbDictionary
280
     1
281
     1
  3
ACAD_XREC_ROUNDTRIP
360
31C
  0
DICTIONARY
  5
31F
330
31
100
AcDbDictionary
280
     1
281
     1
  3
ACAD_XREC_ROUNDTRIP
360
320
  0
DICTIONARY
  5
31D
330
30
100
AcDbDictionary
280
     1
281
     1
  3
ACAD_XREC_ROUNDTRIP
360
31E
  0
DICTIONARY
  5
321
330
32
100
AcDbDictionary
280
     1
281
     1
  3
ACAD_XREC_ROUNDTRIP
360
322
  0
DICTIONARY
  5
329
330
36
100
AcDbDictionary
280
     1
281
     1
  3
ACAD_XREC_ROUNDTRIP
360
32A
  0
DICTIONARY
  5
331
330
3A
100
AcDbDictionary
280
     1
281
     1
  3
ACAD_XREC_ROUNDTRIP
360
332
  0
DICTIONARY
  5
325
330
34
100
AcDbDictionary
280
     1
281
     1
  3
ACAD_XREC_ROUNDTRIP
360
326
  0
DICTIONARY
  5
327
330
35
100
AcDbDictionary
280
     1
281
     1
  3
ACAD_XREC_ROUNDTRIP
360
328
  0
DICTIONARY
  5
34B
330
22B
100
AcDbDictionary
280
     1
281
     1
  3
ACAD_XREC_ROUNDTRIP
360
34C
  0
DICTIONARY
  5
32F
330
39
100
AcDbDictionary
280
     1
281
     1
  3
ACAD_XREC_ROUNDTRIP
360
330
  0
DICTIONARY
  5
313
330
2B
100
AcDbDictionary
280
     1
281
     1
  3
ACAD_XREC_ROUNDTRIP
360
314
  0
DICTIONARY
  5
315
330
2C
100
AcDbDictionary
280
     1
281
     1
  3
ACAD_XREC_ROUNDTRIP
360
316
  0
DICTIONARY
  5
317
330
2D
100
AcDbDictionary
280
     1
281
     1
  3
ACAD_XREC_ROUNDTRIP
360
318
  0
DICTIONARY
  5
319
330
2E
100
AcDbDictionary
280
     1
281
     1
  3
ACAD_XREC_ROUNDTRIP
360
31A
  0
DICTIONARY
  5
33B
330
223
100
AcDbDictionary
280
     1
281
     1
  3
ACAD_XREC_ROUNDTRIP
360
33C
  0
DICTIONARY
  5
347
330
229
100
AcDbDictionary
280
     1
281
     1
  3
ACAD_XREC_ROUNDTRIP
360
348
  0
DICTIONARY
  5
32D
330
38
100
AcDbDictionary
280
     1
281
     1
  3
ACAD_XREC_ROUNDTRIP
360
32E
  0
DICTIONARY
  5
349
330
22A
100
AcDbDictionary
280
     1
281
     1
  3
ACAD_XREC_ROUNDTRIP
360
34A
  0
DICTIONARY
  5
323
330
33
100
AcDbDictionary
280
     1
281
     1
  3
ACAD_XREC_ROUNDTRIP
360
324
  0
DICTIONARY
  5
345
330
228
100
AcDbDictionary
280
     1
281
     1
  3
ACAD_XREC_ROUNDTRIP
360
346
  0
DICTIONARY
  5
343
330
227
100
AcDbDictionary
280
     1
281
     1
  3
ACAD_XREC_ROUNDTRIP
360
344
  0
DICTIONARY
  5
33D
330
224
100
AcDbDictionary
280
     1
281
     1
  3
ACAD_XREC_ROUNDTRIP
360
33E
  0
DICTIONARY
  5
33F
330
225
100
AcDbDictionary
280
     1
281
     1
  3
ACAD_XREC_ROUNDTRIP
360
340
  0
DICTIONARY
  5
32B
330
37
100
AcDbDictionary
280
     1
281
     1
  3
ACAD_XREC_ROUNDTRIP
360
32C
  0
DICTIONARY
  5
339
330
222
100
AcDbDictionary
280
     1
281
     1
  3
ACAD_XREC_ROUNDTRIP
360
33A
  0
DICTIONARY
  5
341
330
226
100
AcDbDictionary
280
     1
281
     1
  3
ACAD_XREC_ROUNDTRIP
360
342
  0
XRECORD
  5
30E
102
{ACAD_REACTORS
330
30D
102
}
330
30D
100
AcDbXrecord
280
     1
102
SHADEPLOT
 70
     0
102
SHADEPLOTRESLEVEL
 70
     2
102
SHADEPLOTCUSTOMDPI
 70
   300
  0
XRECORD
  5
312
102
{ACAD_REACTORS
330
311
102
}
330
311
100
AcDbXrecord
280
     1
102
SHADEPLOT
 70
     0
102
SHADEPLOTRESLEVEL
 70
     2
102
SHADEPLOTCUSTOMDPI
 70
   300
  0
XRECORD
  5
310
102
{ACAD_REACTORS
330
30F
102
}
330
30F
100
AcDbXrecord
280
     1
102
SHADEPLOT
 70
     0
102
SHADEPLOTRESLEVEL
 70
     2
102
SHADEPLOTCUSTOMDPI
 70
   300
  0
XRECORD
  5
336
102
{ACAD_REACTORS
330
335
102
}
330
335
100
AcDbXrecord
280
     1
102
MATERIAL
148
0.0
149
0.0
149
0.0
 93
        0
 94
      127
282
     0
 72
     1
 77
     1
171
     1
175
     1
179
     1
273
     0
  0
XRECORD
  5
334
102
{ACAD_REACTORS
330
333
102
}
330
333
100
AcDbXrecord
280
     1
102
MATERIAL
148
0.0
149
0.0
149
0.0
 93
        0
 94
      127
282
     0
 72
     1
 77
     1
171
     1
175
     1
179
     1
273
     0
  0
XRECORD
  5
338
102
{ACAD_REACTORS
330
337
102
}
330
337
100
AcDbXrecord
280
     1
102
MATERIAL
148
0.0
149
0.0
149
0.0
 93
        0
 94
      127
282
     0
 72
     1
 77
     1
171
     1
175
     1
179
     1
273
     0
  0
XRECORD
  5
30A
102
{ACAD_REACTORS
330
309
102
}
330
309
100
AcDbXrecord
280
     1
102
ACAD_ROUNDTRIP_2012_MLEADER_STYLE
298
     1
  0
CELLSTYLEMAP
  5
308
102
{ACAD_REACTORS
330
307
102
}
330
307
100
AcDbCellStyleMap
 90
        3
300
CELLSTYLE
  1
TABLEFORMAT_BEGIN
 90
        5
170
     1
 91
        0
 92
    32768
 62
   257
 93
        1
300
CONTENTFORMAT
  1
CONTENTFORMAT_BEGIN
 90
        0
 91
        0
 92
      512
 93
        0
300

 40
0.0
140
1.0
 94
        5
 62
     0
340
11
144
0.25
309
CONTENTFORMAT_END
171
     0
 94
        0
309
TABLEFORMAT_END
  1
CELLSTYLE_BEGIN
 90
        1
 91
        1
300
_TITLE
309
CELLSTYLE_END
300
CELLSTYLE
  1
TABLEFORMAT_BEGIN
 90
        5
170
     1
 91
        0
 92
        0
 62
   257
 93
        1
300
CONTENTFORMAT
  1
CONTENTFORMAT_BEGIN
 90
        0
 91
        0
 92
      512
 93
        0
300

 40
0.0
140
1.0
 94
        5
 62
     0
340
11
144
0.18
309
CONTENTFORMAT_END
171
     0
 94
        0
309
TABLEFORMAT_END
  1
CELLSTYLE_BEGIN
 90
        2
 91
        1
300
_HEADER
309
CELLSTYLE_END
300
CELLSTYLE
  1
TABLEFORMAT_BEGIN
 90
        5
170
     1
 91
        0
 92
        0
 62
   257
 93
        1
300
CONTENTFORMAT
  1
CONTENTFORMAT_BEGIN
 90
        0
 91
        0
 92
      512
 93
        0
300

 40
0.0
140
1.0
 94
        2
 62
     0
340
11
144
0.18
309
CONTENTFORMAT_END
171
     0
 94
        0
309
TABLEFORMAT_END
  1
CELLSTYLE_BEGIN
 90
        3
 91
        2
300
_DATA
309
CELLSTYLE_END
  0
XRECORD
  5
34D
102
{ACAD_REACTORS
330
307
102
}
330
307
100
AcDbXrecord
280
     1
102
ACAD_ROUNDTRIP_PRE2007_TABLESTYLE
 90
      512
 91
        0
  1

 92
      512
 93
        0
  2

 94
      512
 95
        0
  3

  0
XRECORD
  5
31C
102
{ACAD_REACTORS
330
31B
102
}
330
31B
100
AcDbXrecord
280
     1
102
RTVSPropertyOp0
 70
     1
102
RTVSPropertyOp1
 70
     1
102
RTVSPropertyOp2
 70
     1
102
RTVSPropertyOp3
 70
     1
102
RTVSPropertyOp4
 70
     1
102
RTVSPropertyOp5
 70
     1
102
RTVSPropertyOp6
 70
     1
102
RTVSPropertyOp7
 70
     1
102
RTVSPropertyOp8
 70
     1
102
RTVSPropertyOp9
 70
     1
102
RTVSPropertyOp10
 70
     1
102
RTVSPropertyOp11
 70
     1
102
RTVSPropertyOp12
 70
     1
102
RTVSPropertyOp13
 70
     1
102
RTVSPropertyOp14
 70
     1
102
RTVSPropertyOp15
 70
     1
102
RTVSPropertyOp16
 70
     1
102
RTVSPropertyOp17
 70
     1
102
RTVSPropertyOp18
 70
     1
102
RTVSPropertyOp19
 70
     1
102
RTVSPropertyOp20
 70
     1
102
RTVSPropertyOp21
 70
     1
102
RTVSPropertyOp22
 70
     1
102
RTVSPropertyOp23
 70
     1
102
RTVSPropertyOp24
 70
     1
102
RTVSPropertyOp25
 70
     1
102
RTVSPropertyOp26
 70
     1
102
RTVSPropertyOp27
 70
     1
102
RTVSPropertyOp28
 70
     1
102
RTVSPropertyOp29
 70
     1
102
RTVSPropertyOp30
 70
     1
102
RTVSPropertyOp31
 70
     1
102
RTVSPropertyOp32
 70
     1
  0
XRECORD
  5
320
102
{ACAD_REACTORS
330
31F
102
}
330
31F
100
AcDbXrecord
280
     1
102
RTVSPropertyOp0
 70
     1
102
RTVSPropertyOp1
 70
     1
102
RTVSPropertyOp2
 70
     1
102
RTVSPropertyOp3
 70
     1
102
RTVSPropertyOp4
 70
     1
102
RTVSPropertyOp5
 70
     1
102
RTVSPropertyOp6
 70
     1
102
RTVSPropertyOp7
 70
     1
102
RTVSPropertyOp8
 70
     1
102
RTVSPropertyOp9
 70
     1
102
RTVSPropertyOp10
 70
     1
102
RTVSPropertyOp11
 70
     1
102
RTVSPropertyOp12
 70
     1
102
RTVSPropertyOp13
 70
     1
102
RTVSPropertyOp14
 70
     1
102
RTVSPropertyOp15
 70
     1
102
RTVSPropertyOp16
 70
     1
102
RTVSPropertyOp17
 70
     1
102
RTVSPropertyOp18
 70
     1
102
RTVSPropertyOp19
 70
     1
102
RTVSPropertyOp20
 70
     1
102
RTVSPropertyOp21
 70
     1
102
RTVSPropertyOp22
 70
     1
102
RTVSPropertyOp23
 70
     1
102
RTVSPropertyOp24
 70
     1
102
RTVSPropertyOp25
 70
     1
102
RTVSPropertyOp26
 70
     1
102
RTVSPropertyOp27
 70
     1
102
RTVSPropertyOp28
 70
     1
102
RTVSPropertyOp29
 70
     1
102
RTVSPropertyOp30
 70
     1
102
RTVSPropertyOp31
 70
     1
102
RTVSPropertyOp32
 70
     1
  0
XRECORD
  5
31E
102
{ACAD_REACTORS
330
31D
102
}
330
31D
100
AcDbXrecord
280
     1
102
RTVSPropertyOp0
 70
     1
102
RTVSPropertyOp1
 70
     1
102
RTVSPropertyOp2
 70
     1
102
RTVSPropertyOp3
 70
     1
102
RTVSPropertyOp4
 70
     1
102
RTVSPropertyOp5
 70
     1
102
RTVSPropertyOp6
 70
     1
102
RTVSPropertyOp7
 70
     1
102
RTVSPropertyOp8
 70
     1
102
RTVSPropertyOp9
 70
     1
102
RTVSPropertyOp10
 70
     1
102
RTVSPropertyOp11
 70
     1
102
RTVSPropertyOp12
 70
     1
102
RTVSPropertyOp13
 70
     1
102
RTVSPropertyOp14
 70
     1
102
RTVSPropertyOp15
 70
     1
102
RTVSPropertyOp16
 70
     1
102
RTVSPropertyOp17
 70
     1
102
RTVSPropertyOp18
 70
     1
102
RTVSPropertyOp19
 70
     1
102
RTVSPropertyOp20
 70
     1
102
RTVSPropertyOp21
 70
     1
102
RTVSPropertyOp22
 70
     1
102
RTVSPropertyOp23
 70
     1
102
RTVSPropertyOp24
 70
     1
102
RTVSPropertyOp25
 70
     1
102
RTVSPropertyOp26
 70
     1
102
RTVSPropertyOp27
 70
     1
102
RTVSPropertyOp28
 70
     1
102
RTVSPropertyOp29
 70
     1
102
RTVSPropertyOp30
 70
     1
102
RTVSPropertyOp31
 70
     1
102
RTVSPropertyOp32
 70
     1
  0
XRECORD
  5
322
102
{ACAD_REACTORS
330
321
102
}
330
321
100
AcDbXrecord
280
     1
102
RTVSPropertyOp0
 70
     1
102
RTVSPropertyOp1
 70
     1
102
RTVSPropertyOp2
 70
     1
102
RTVSPropertyOp3
 70
     1
102
RTVSPropertyOp4
 70
     1
102
RTVSPropertyOp5
 70
     1
102
RTVSPropertyOp6
 70
     1
102
RTVSPropertyOp7
 70
     1
102
RTVSPropertyOp8
 70
     1
102
RTVSPropertyOp9
 70
     1
102
RTVSPropertyOp10
 70
     1
102
RTVSPropertyOp11
 70
     1
102
RTVSPropertyOp12
 70
     1
102
RTVSPropertyOp13
 70
     1
102
RTVSPropertyOp14
 70
     1
102
RTVSPropertyOp15
 70
     1
102
RTVSPropertyOp16
 70
     1
102
RTVSPropertyOp17
 70
     1
102
RTVSPropertyOp18
 70
     1
102
RTVSPropertyOp19
 70
     1
102
RTVSPropertyOp20
 70
     1
102
RTVSPropertyOp21
 70
     1
102
RTVSPropertyOp22
 70
     1
102
RTVSPropertyOp23
 70
     1
102
RTVSPropertyOp24
 70
     1
102
RTVSPropertyOp25
 70
     1
102
RTVSPropertyOp26
 70
     1
102
RTVSPropertyOp27
 70
     1
102
RTVSPropertyOp28
 70
     1
102
RTVSPropertyOp29
 70
     1
102
RTVSPropertyOp30
 70
     1
102
RTVSPropertyOp31
 70
     1
102
RTVSPropertyOp32
 70
     1
  0
XRECORD
  5
32A
102
{ACAD_REACTORS
330
329
102
}
330
329
100
AcDbXrecord
280
     1
102
RTVSPropertyOp0
 70
     1
102
RTVSPropertyOp1
 70
     1
102
RTVSPropertyOp2
 70
     1
102
RTVSPropertyOp3
 70
     1
102
RTVSPropertyOp4
 70
     1
102
RTVSPropertyOp5
 70
     1
102
RTVSPropertyOp6
 70
     1
102
RTVSPropertyOp7
 70
     1
102
RTVSPropertyOp8
 70
     1
102
RTVSPropertyOp9
 70
     1
102
RTVSPropertyOp10
 70
     1
102
RTVSPropertyOp11
 70
     1
102
RTVSPropertyOp12
 70
     1
102
RTVSPropertyOp13
 70
     1
102
RTVSPropertyOp14
 70
     1
102
RTVSPropertyOp15
 70
     1
102
RTVSPropertyOp16
 70
     1
102
RTVSPropertyOp17
 70
     1
102
RTVSPropertyOp18
 70
     1
102
RTVSPropertyOp19
 70
     1
102
RTVSPropertyOp20
 70
     1
102
RTVSPropertyOp21
 70
     1
102
RTVSPropertyOp22
 70
     1
102
RTVSPropertyOp23
 70
     1
102
RTVSPropertyOp24
 70
     1
102
RTVSPropertyOp25
 70
     1
102
RTVSPropertyOp26
 70
     1
102
RTVSPropertyOp27
 70
     1
102
RTVSPropertyOp28
 70
     1
102
RTVSPropertyOp29
 70
     1
102
RTVSPropertyOp30
 70
     1
102
RTVSPropertyOp31
 70
     1
102
RTVSPropertyOp32
 70
     1
  0
XRECORD
  5
332
102
{ACAD_REACTORS
330
331
102
}
330
331
100
AcDbXrecord
280
     1
102
RTVSPropertyOp0
 70
     1
102
RTVSPropertyOp1
 70
     1
102
RTVSPropertyOp2
 70
     1
102
RTVSPropertyOp3
 70
     1
102
RTVSPropertyOp4
 70
     1
102
RTVSPropertyOp5
 70
     1
102
RTVSPropertyOp6
 70
     1
102
RTVSPropertyOp7
 70
     1
102
RTVSPropertyOp8
 70
     1
102
RTVSPropertyOp9
 70
     1
102
RTVSPropertyOp10
 70
     1
102
RTVSPropertyOp11
 70
     1
102
RTVSPropertyOp12
 70
     1
102
RTVSPropertyOp13
 70
     1
102
RTVSPropertyOp14
 70
     1
102
RTVSPropertyOp15
 70
     1
102
RTVSPropertyOp16
 70
     1
102
RTVSPropertyOp17
 70
     1
102
RTVSPropertyOp18
 70
     1
102
RTVSPropertyOp19
 70
     1
102
RTVSPropertyOp20
 70
     1
102
RTVSPropertyOp21
 70
     1
102
RTVSPropertyOp22
 70
     1
102
RTVSPropertyOp23
 70
     1
102
RTVSPropertyOp24
 70
     1
102
RTVSPropertyOp25
 70
     1
102
RTVSPropertyOp26
 70
     1
102
RTVSPropertyOp27
 70
     1
102
RTVSPropertyOp28
 70
     1
102
RTVSPropertyOp29
 70
     1
102
RTVSPropertyOp30
 70
     1
102
RTVSPropertyOp31
 70
     1
102
RTVSPropertyOp32
 70
     1
  0
XRECORD
  5
326
102
{ACAD_REACTORS
330
325
102
}
330
325
100
AcDbXrecord
280
     1
102
RTVSPropertyOp0
 70
     1
102
RTVSPropertyOp1
 70
     1
102
RTVSPropertyOp2
 70
     1
102
RTVSPropertyOp3
 70
     1
102
RTVSPropertyOp4
 70
     1
102
RTVSPropertyOp5
 70
     1
102
RTVSPropertyOp6
 70
     1
102
RTVSPropertyOp7
 70
     1
102
RTVSPropertyOp8
 70
     1
102
RTVSPropertyOp9
 70
     1
102
RTVSPropertyOp10
 70
     1
102
RTVSPropertyOp11
 70
     1
102
RTVSPropertyOp12
 70
     1
102
RTVSPropertyOp13
 70
     1
102
RTVSPropertyOp14
 70
     1
102
RTVSPropertyOp15
 70
     1
102
RTVSPropertyOp16
 70
     1
102
RTVSPropertyOp17
 70
     1
102
RTVSPropertyOp18
 70
     1
102
RTVSPropertyOp19
 70
     1
102
RTVSPropertyOp20
 70
     1
102
RTVSPropertyOp21
 70
     1
102
RTVSPropertyOp22
 70
     1
102
RTVSPropertyOp23
 70
     1
102
RTVSPropertyOp24
 70
     1
102
RTVSPropertyOp25
 70
     1
102
RTVSPropertyOp26
 70
     1
102
RTVSPropertyOp27
 70
     1
102
RTVSPropertyOp28
 70
     1
102
RTVSPropertyOp29
 70
     1
102
RTVSPropertyOp30
 70
     1
102
RTVSPropertyOp31
 70
     1
102
RTVSPropertyOp32
 70
     1
  0
XRECORD
  5
328
102
{ACAD_REACTORS
330
327
102
}
330
327
100
AcDbXrecord
280
     1
102
RTVSPropertyOp0
 70
     1
102
RTVSPropertyOp1
 70
     1
102
RTVSPropertyOp2
 70
     1
102
RTVSPropertyOp3
 70
     1
102
RTVSPropertyOp4
 70
     1
102
RTVSPropertyOp5
 70
     1
102
RTVSPropertyOp6
 70
     1
102
RTVSPropertyOp7
 70
     1
102
RTVSPropertyOp8
 70
     1
102
RTVSPropertyOp9
 70
     1
102
RTVSPropertyOp10
 70
     1
102
RTVSPropertyOp11
 70
     1
102
RTVSPropertyOp12
 70
     1
102
RTVSPropertyOp13
 70
     1
102
RTVSPropertyOp14
 70
     1
102
RTVSPropertyOp15
 70
     1
102
RTVSPropertyOp16
 70
     1
102
RTVSPropertyOp17
 70
     1
102
RTVSPropertyOp18
 70
     1
102
RTVSPropertyOp19
 70
     1
102
RTVSPropertyOp20
 70
     1
102
RTVSPropertyOp21
 70
     1
102
RTVSPropertyOp22
 70
     1
102
RTVSPropertyOp23
 70
     1
102
RTVSPropertyOp24
 70
     1
102
RTVSPropertyOp25
 70
     1
102
RTVSPropertyOp26
 70
     1
102
RTVSPropertyOp27
 70
     1
102
RTVSPropertyOp28
 70
     1
102
RTVSPropertyOp29
 70
     1
102
RTVSPropertyOp30
 70
     1
102
RTVSPropertyOp31
 70
     1
102
RTVSPropertyOp32
 70
     1
  0
XRECORD
  5
34C
102
{ACAD_REACTORS
330
34B
102
}
330
34B
100
AcDbXrecord
280
     1
102
RTVSPropertyOp0
 70
     0
102
RTVSPropertyOp1
 70
     0
102
RTVSPropertyOp2
 70
     0
102
RTVSPropertyOp3
 70
     0
102
RTVSPropertyOp4
 70
     0
102
RTVSPropertyOp5
 70
     0
102
RTVSPropertyOp6
 70
     0
102
RTVSPropertyOp7
 70
     0
102
RTVSPropertyOp8
 70
     0
102
RTVSPropertyOp9
 70
     0
102
RTVSPropertyOp10
 70
     0
102
RTVSPropertyOp11
 70
     0
102
RTVSPropertyOp12
 70
     0
102
RTVSPropertyOp13
 70
     0
102
RTVSPropertyOp14
 70
     2
102
RTVSPropertyOp15
 70
     0
102
RTVSPropertyOp16
 70
     0
102
RTVSPropertyOp17
 70
     0
102
RTVSPropertyOp18
 70
     0
102
RTVSPropertyOp19
 70
     0
102
RTVSPropertyOp20
 70
     0
102
RTVSPropertyOp21
 70
     0
102
RTVSPropertyOp22
 70
     0
102
RTVSPropertyOp23
 70
     0
102
RTVSPropertyOp24
 70
     0
102
RTVSPropertyOp25
 70
     0
102
RTVSPropertyOp26
 70
     0
102
RTVSPropertyOp27
 70
     0
102
RTVSPropertyOp28
 70
     0
102
RTVSPropertyOp29
 70
     0
102
RTVSPropertyOp30
 70
     0
102
RTVSPropertyOp31
 70
     0
102
RTVSPropertyOp32
 70
     0
  0
XRECORD
  5
330
102
{ACAD_REACTORS
330
32F
102
}
330
32F
100
AcDbXrecord
280
     1
102
RTVSPropertyOp0
 70
     1
102
RTVSPropertyOp1
 70
     1
102
RTVSPropertyOp2
 70
     1
102
RTVSPropertyOp3
 70
     1
102
RTVSPropertyOp4
 70
     1
102
RTVSPropertyOp5
 70
     1
102
RTVSPropertyOp6
 70
     1
102
RTVSPropertyOp7
 70
     1
102
RTVSPropertyOp8
 70
     1
102
RTVSPropertyOp9
 70
     1
102
RTVSPropertyOp10
 70
     1
102
RTVSPropertyOp11
 70
     1
102
RTVSPropertyOp12
 70
     1
102
RTVSPropertyOp13
 70
     1
102
RTVSPropertyOp14
 70
     1
102
RTVSPropertyOp15
 70
     1
102
RTVSPropertyOp16
 70
     1
102
RTVSPropertyOp17
 70
     1
102
RTVSPropertyOp18
 70
     1
102
RTVSPropertyOp19
 70
     1
102
RTVSPropertyOp20
 70
     1
102
RTVSPropertyOp21
 70
     1
102
RTVSPropertyOp22
 70
     1
102
RTVSPropertyOp23
 70
     1
102
RTVSPropertyOp24
 70
     1
102
RTVSPropertyOp25
 70
     1
102
RTVSPropertyOp26
 70
     1
102
RTVSPropertyOp27
 70
     1
102
RTVSPropertyOp28
 70
     1
102
RTVSPropertyOp29
 70
     1
102
RTVSPropertyOp30
 70
     1
102
RTVSPropertyOp31
 70
     1
102
RTVSPropertyOp32
 70
     1
  0
XRECORD
  5
314
102
{ACAD_REACTORS
330
313
102
}
330
313
100
AcDbXrecord
280
     1
102
RTVSPropertyOp0
 70
     1
102
RTVSPropertyOp1
 70
     1
102
RTVSPropertyOp2
 70
     1
102
RTVSPropertyOp3
 70
     1
102
RTVSPropertyOp4
 70
     1
102
RTVSPropertyOp5
 70
     1
102
RTVSPropertyOp6
 70
     1
102
RTVSPropertyOp7
 70
     1
102
RTVSPropertyOp8
 70
     1
102
RTVSPropertyOp9
 70
     1
102
RTVSPropertyOp10
 70
     1
102
RTVSPropertyOp11
 70
     1
102
RTVSPropertyOp12
 70
     1
102
RTVSPropertyOp13
 70
     1
102
RTVSPropertyOp14
 70
     1
102
RTVSPropertyOp15
 70
     1
102
RTVSPropertyOp16
 70
     1
102
RTVSPropertyOp17
 70
     1
102
RTVSPropertyOp18
 70
     1
102
RTVSPropertyOp19
 70
     1
102
RTVSPropertyOp20
 70
     1
102
RTVSPropertyOp21
 70
     1
102
RTVSPropertyOp22
 70
     1
102
RTVSPropertyOp23
 70
     1
102
RTVSPropertyOp24
 70
     1
102
RTVSPropertyOp25
 70
     1
102
RTVSPropertyOp26
 70
     1
102
RTVSPropertyOp27
 70
     1
102
RTVSPropertyOp28
 70
     1
102
RTVSPropertyOp29
 70
     1
102
RTVSPropertyOp30
 70
     1
102
RTVSPropertyOp31
 70
     1
102
RTVSPropertyOp32
 70
     1
  0
XRECORD
  5
316
102
{ACAD_REACTORS
330
315
102
}
330
315
100
AcDbXrecord
280
     1
102
RTVSPropertyOp0
 70
     1
102
RTVSPropertyOp1
 70
     1
102
RTVSPropertyOp2
 70
     1
102
RTVSPropertyOp3
 70
     1
102
RTVSPropertyOp4
 70
     1
102
RTVSPropertyOp5
 70
     1
102
RTVSPropertyOp6
 70
     1
102
RTVSPropertyOp7
 70
     1
102
RTVSPropertyOp8
 70
     1
102
RTVSPropertyOp9
 70
     1
102
RTVSPropertyOp10
 70
     1
102
RTVSPropertyOp11
 70
     1
102
RTVSPropertyOp12
 70
     1
102
RTVSPropertyOp13
 70
     1
102
RTVSPropertyOp14
 70
     1
102
RTVSPropertyOp15
 70
     1
102
RTVSPropertyOp16
 70
     1
102
RTVSPropertyOp17
 70
     1
102
RTVSPropertyOp18
 70
     1
102
RTVSPropertyOp19
 70
     1
102
RTVSPropertyOp20
 70
     1
102
RTVSPropertyOp21
 70
     1
102
RTVSPropertyOp22
 70
     1
102
RTVSPropertyOp23
 70
     1
102
RTVSPropertyOp24
 70
     1
102
RTVSPropertyOp25
 70
     1
102
RTVSPropertyOp26
 70
     1
102
RTVSPropertyOp27
 70
     1
102
RTVSPropertyOp28
 70
     1
102
RTVSPropertyOp29
 70
     1
102
RTVSPropertyOp30
 70
     1
102
RTVSPropertyOp31
 70
     1
102
RTVSPropertyOp32
 70
     1
  0
XRECORD
  5
318
102
{ACAD_REACTORS
330
317
102
}
330
317
100
AcDbXrecord
280
     1
102
RTVSPropertyOp0
 70
     1
102
RTVSPropertyOp1
 70
     1
102
RTVSPropertyOp2
 70
     1
102
RTVSPropertyOp3
 70
     1
102
RTVSPropertyOp4
 70
     1
102
RTVSPropertyOp5
 70
     1
102
RTVSPropertyOp6
 70
     1
102
RTVSPropertyOp7
 70
     1
102
RTVSPropertyOp8
 70
     1
102
RTVSPropertyOp9
 70
     1
102
RTVSPropertyOp10
 70
     1
102
RTVSPropertyOp11
 70
     1
102
RTVSPropertyOp12
 70
     1
102
RTVSPropertyOp13
 70
     1
102
RTVSPropertyOp14
 70
     1
102
RTVSPropertyOp15
 70
     1
102
RTVSPropertyOp16
 70
     1
102
RTVSPropertyOp17
 70
     1
102
RTVSPropertyOp18
 70
     1
102
RTVSPropertyOp19
 70
     1
102
RTVSPropertyOp20
 70
     1
102
RTVSPropertyOp21
 70
     1
102
RTVSPropertyOp22
 70
     1
102
RTVSPropertyOp23
 70
     1
102
RTVSPropertyOp24
 70
     1
102
RTVSPropertyOp25
 70
     1
102
RTVSPropertyOp26
 70
     1
102
RTVSPropertyOp27
 70
     1
102
RTVSPropertyOp28
 70
     1
102
RTVSPropertyOp29
 70
     1
102
RTVSPropertyOp30
 70
     1
102
RTVSPropertyOp31
 70
     1
102
RTVSPropertyOp32
 70
     1
  0
XRECORD
  5
31A
102
{ACAD_REACTORS
330
319
102
}
330
319
100
AcDbXrecord
280
     1
102
RTVSPropertyOp0
 70
     1
102
RTVSPropertyOp1
 70
     1
102
RTVSPropertyOp2
 70
     1
102
RTVSPropertyOp3
 70
     1
102
RTVSPropertyOp4
 70
     1
102
RTVSPropertyOp5
 70
     1
102
RTVSPropertyOp6
 70
     1
102
RTVSPropertyOp7
 70
     1
102
RTVSPropertyOp8
 70
     1
102
RTVSPropertyOp9
 70
     1
102
RTVSPropertyOp10
 70
     1
102
RTVSPropertyOp11
 70
     1
102
RTVSPropertyOp12
 70
     1
102
RTVSPropertyOp13
 70
     1
102
RTVSPropertyOp14
 70
     1
102
RTVSPropertyOp15
 70
     1
102
RTVSPropertyOp16
 70
     1
102
RTVSPropertyOp17
 70
     1
102
RTVSPropertyOp18
 70
     1
102
RTVSPropertyOp19
 70
     1
102
RTVSPropertyOp20
 70
     1
102
RTVSPropertyOp21
 70
     1
102
RTVSPropertyOp22
 70
     1
102
RTVSPropertyOp23
 70
     1
102
RTVSPropertyOp24
 70
     1
102
RTVSPropertyOp25
 70
     1
102
RTVSPropertyOp26
 70
     1
102
RTVSPropertyOp27
 70
     1
102
RTVSPropertyOp28
 70
     1
102
RTVSPropertyOp29
 70
     1
102
RTVSPropertyOp30
 70
     1
102
RTVSPropertyOp31
 70
     1
102
RTVSPropertyOp32
 70
     1
  0
XRECORD
  5
33C
102
{ACAD_REACTORS
330
33B
102
}
330
33B
100
AcDbXrecord
280
     1
102
RTVSPropertyOp0
 70
     1
102
RTVSPropertyOp1
 70
     1
102
RTVSPropertyOp2
 70
     1
102
RTVSPropertyOp3
 70
     1
102
RTVSPropertyOp4
 70
     1
102
RTVSPropertyOp5
 70
     1
102
RTVSPropertyOp6
 70
     1
102
RTVSPropertyOp7
 70
     1
102
RTVSPropertyOp8
 70
     1
102
RTVSPropertyOp9
 70
     1
102
RTVSPropertyOp10
 70
     1
102
RTVSPropertyOp11
 70
     1
102
RTVSPropertyOp12
 70
     1
102
RTVSPropertyOp13
 70
     1
102
RTVSPropertyOp14
 70
     1
102
RTVSPropertyOp15
 70
     1
102
RTVSPropertyOp16
 70
     1
102
RTVSPropertyOp17
 70
     1
102
RTVSPropertyOp18
 70
     1
102
RTVSPropertyOp19
 70
     1
102
RTVSPropertyOp20
 70
     1
102
RTVSPropertyOp21
 70
     1
102
RTVSPropertyOp22
 70
     1
102
RTVSPropertyOp23
 70
     1
102
RTVSPropertyOp24
 70
     1
102
RTVSPropertyOp25
 70
     1
102
RTVSPropertyOp26
 70
     1
102
RTVSPropertyOp27
 70
     1
102
RTVSPropertyOp28
 70
     1
102
RTVSPropertyOp29
 70
     1
102
RTVSPropertyOp30
 70
     1
102
RTVSPropertyOp31
 70
     1
102
RTVSPropertyOp32
 70
     1
  0
XRECORD
  5
348
102
{ACAD_REACTORS
330
347
102
}
330
347
100
AcDbXrecord
280
     1
102
RTVSPropertyOp0
 70
     0
102
RTVSPropertyOp1
 70
     0
102
RTVSPropertyOp2
 70
     0
102
RTVSPropertyOp3
 70
     0
102
RTVSPropertyOp4
 70
     0
102
RTVSPropertyOp5
 70
     0
102
RTVSPropertyOp6
 70
     0
102
RTVSPropertyOp7
 70
     0
102
RTVSPropertyOp8
 70
     0
102
RTVSPropertyOp9
 70
     0
102
RTVSPropertyOp10
 70
     0
102
RTVSPropertyOp11
 70
     0
102
RTVSPropertyOp12
 70
     0
102
RTVSPropertyOp13
 70
     0
102
RTVSPropertyOp14
 70
     2
102
RTVSPropertyOp15
 70
     0
102
RTVSPropertyOp16
 70
     0
102
RTVSPropertyOp17
 70
     0
102
RTVSPropertyOp18
 70
     0
102
RTVSPropertyOp19
 70
     0
102
RTVSPropertyOp20
 70
     0
102
RTVSPropertyOp21
 70
     0
102
RTVSPropertyOp22
 70
     0
102
RTVSPropertyOp23
 70
     0
102
RTVSPropertyOp24
 70
     0
102
RTVSPropertyOp25
 70
     0
102
RTVSPropertyOp26
 70
     0
102
RTVSPropertyOp27
 70
     0
102
RTVSPropertyOp28
 70
     0
102
RTVSPropertyOp29
 70
     0
102
RTVSPropertyOp30
 70
     0
102
RTVSPropertyOp31
 70
     0
102
RTVSPropertyOp32
 70
     0
  0
XRECORD
  5
32E
102
{ACAD_REACTORS
330
32D
102
}
330
32D
100
AcDbXrecord
280
     1
102
RTVSPropertyOp0
 70
     1
102
RTVSPropertyOp1
 70
     1
102
RTVSPropertyOp2
 70
     1
102
RTVSPropertyOp3
 70
     1
102
RTVSPropertyOp4
 70
     1
102
RTVSPropertyOp5
 70
     1
102
RTVSPropertyOp6
 70
     1
102
RTVSPropertyOp7
 70
     1
102
RTVSPropertyOp8
 70
     1
102
RTVSPropertyOp9
 70
     1
102
RTVSPropertyOp10
 70
     1
102
RTVSPropertyOp11
 70
     1
102
RTVSPropertyOp12
 70
     1
102
RTVSPropertyOp13
 70
     1
102
RTVSPropertyOp14
 70
     1
102
RTVSPropertyOp15
 70
     1
102
RTVSPropertyOp16
 70
     1
102
RTVSPropertyOp17
 70
     1
102
RTVSPropertyOp18
 70
     1
102
RTVSPropertyOp19
 70
     1
102
RTVSPropertyOp20
 70
     1
102
RTVSPropertyOp21
 70
     1
102
RTVSPropertyOp22
 70
     1
102
RTVSPropertyOp23
 70
     1
102
RTVSPropertyOp24
 70
     1
102
RTVSPropertyOp25
 70
     1
102
RTVSPropertyOp26
 70
     1
102
RTVSPropertyOp27
 70
     1
102
RTVSPropertyOp28
 70
     1
102
RTVSPropertyOp29
 70
     1
102
RTVSPropertyOp30
 70
     1
102
RTVSPropertyOp31
 70
     1
102
RTVSPropertyOp32
 70
     1
  0
XRECORD
  5
34A
102
{ACAD_REACTORS
330
349
102
}
330
349
100
AcDbXrecord
280
     1
102
RTVSPropertyOp0
 70
     0
102
RTVSPropertyOp1
 70
     0
102
RTVSPropertyOp2
 70
     0
102
RTVSPropertyOp3
 70
     0
102
RTVSPropertyOp4
 70
     0
102
RTVSPropertyOp5
 70
     0
102
RTVSPropertyOp6
 70
     0
102
RTVSPropertyOp7
 70
     0
102
RTVSPropertyOp8
 70
     0
102
RTVSPropertyOp9
 70
     0
102
RTVSPropertyOp10
 70
     0
102
RTVSPropertyOp11
 70
     0
102
RTVSPropertyOp12
 70
     0
102
RTVSPropertyOp13
 70
     0
102
RTVSPropertyOp14
 70
     2
102
RTVSPropertyOp15
 70
     0
102
RTVSPropertyOp16
 70
     0
102
RTVSPropertyOp17
 70
     0
102
RTVSPropertyOp18
 70
     0
102
RTVSPropertyOp19
 70
     0
102
RTVSPropertyOp20
 70
     0
102
RTVSPropertyOp21
 70
     0
102
RTVSPropertyOp22
 70
     0
102
RTVSPropertyOp23
 70
     0
102
RTVSPropertyOp24
 70
     0
102
RTVSPropertyOp25
 70
     0
102
RTVSPropertyOp26
 70
     0
102
RTVSPropertyOp27
 70
     0
102
RTVSPropertyOp28
 70
     0
102
RTVSPropertyOp29
 70
     0
102
RTVSPropertyOp30
 70
     0
102
RTVSPropertyOp31
 70
     0
102
RTVSPropertyOp32
 70
     0
  0
XRECORD
  5
324
102
{ACAD_REACTORS
330
323
102
}
330
323
100
AcDbXrecord
280
     1
102
RTVSPropertyOp0
 70
     1
102
RTVSPropertyOp1
 70
     1
102
RTVSPropertyOp2
 70
     1
102
RTVSPropertyOp3
 70
     1
102
RTVSPropertyOp4
 70
     1
102
RTVSPropertyOp5
 70
     1
102
RTVSPropertyOp6
 70
     1
102
RTVSPropertyOp7
 70
     1
102
RTVSPropertyOp8
 70
     1
102
RTVSPropertyOp9
 70
     1
102
RTVSPropertyOp10
 70
     1
102
RTVSPropertyOp11
 70
     1
102
RTVSPropertyOp12
 70
     1
102
RTVSPropertyOp13
 70
     1
102
RTVSPropertyOp14
 70
     1
102
RTVSPropertyOp15
 70
     1
102
RTVSPropertyOp16
 70
     1
102
RTVSPropertyOp17
 70
     1
102
RTVSPropertyOp18
 70
     1
102
RTVSPropertyOp19
 70
     1
102
RTVSPropertyOp20
 70
     1
102
RTVSPropertyOp21
 70
     1
102
RTVSPropertyOp22
 70
     1
102
RTVSPropertyOp23
 70
     1
102
RTVSPropertyOp24
 70
     1
102
RTVSPropertyOp25
 70
     1
102
RTVSPropertyOp26
 70
     1
102
RTVSPropertyOp27
 70
     1
102
RTVSPropertyOp28
 70
     1
102
RTVSPropertyOp29
 70
     1
102
RTVSPropertyOp30
 70
     1
102
RTVSPropertyOp31
 70
     1
102
RTVSPropertyOp32
 70
     1
  0
XRECORD
  5
346
102
{ACAD_REACTORS
330
345
102
}
330
345
100
AcDbXrecord
280
     1
102
RTVSPropertyOp0
 70
     1
102
RTVSPropertyOp1
 70
     1
102
RTVSPropertyOp2
 70
     1
102
RTVSPropertyOp3
 70
     1
102
RTVSPropertyOp4
 70
     1
102
RTVSPropertyOp5
 70
     1
102
RTVSPropertyOp6
 70
     1
102
RTVSPropertyOp7
 70
     1
102
RTVSPropertyOp8
 70
     1
102
RTVSPropertyOp9
 70
     1
102
RTVSPropertyOp10
 70
     1
102
RTVSPropertyOp11
 70
     1
102
RTVSPropertyOp12
 70
     1
102
RTVSPropertyOp13
 70
     1
102
RTVSPropertyOp14
 70
     1
102
RTVSPropertyOp15
 70
     1
102
RTVSPropertyOp16
 70
     1
102
RTVSPropertyOp17
 70
     1
102
RTVSPropertyOp18
 70
     1
102
RTVSPropertyOp19
 70
     1
102
RTVSPropertyOp20
 70
     1
102
RTVSPropertyOp21
 70
     1
102
RTVSPropertyOp22
 70
     1
102
RTVSPropertyOp23
 70
     1
102
RTVSPropertyOp24
 70
     1
102
RTVSPropertyOp25
 70
     1
102
RTVSPropertyOp26
 70
     1
102
RTVSPropertyOp27
 70
     1
102
RTVSPropertyOp28
 70
     1
102
RTVSPropertyOp29
 70
     1
102
RTVSPropertyOp30
 70
     1
102
RTVSPropertyOp31
 70
     1
102
RTVSPropertyOp32
 70
     1
  0
XRECORD
  5
344
102
{ACAD_REACTORS
330
343
102
}
330
343
100
AcDbXrecord
280
     1
102
RTVSPropertyOp0
 70
     1
102
RTVSPropertyOp1
 70
     1
102
RTVSPropertyOp2
 70
     1
102
RTVSPropertyOp3
 70
     1
102
RTVSPropertyOp4
 70
     1
102
RTVSPropertyOp5
 70
     1
102
RTVSPropertyOp6
 70
     1
102
RTVSPropertyOp7
 70
     1
102
RTVSPropertyOp8
 70
     1
102
RTVSPropertyOp9
 70
     1
102
RTVSPropertyOp10
 70
     1
102
RTVSPropertyOp11
 70
     1
102
RTVSPropertyOp12
 70
     1
102
RTVSPropertyOp13
 70
     1
102
RTVSPropertyOp14
 70
     1
102
RTVSPropertyOp15
 70
     1
102
RTVSPropertyOp16
 70
     1
102
RTVSPropertyOp17
 70
     1
102
RTVSPropertyOp18
 70
     1
102
RTVSPropertyOp19
 70
     1
102
RTVSPropertyOp20
 70
     1
102
RTVSPropertyOp21
 70
     1
102
RTVSPropertyOp22
 70
     1
102
RTVSPropertyOp23
 70
     1
102
RTVSPropertyOp24
 70
     1
102
RTVSPropertyOp25
 70
     1
102
RTVSPropertyOp26
 70
     1
102
RTVSPropertyOp27
 70
     1
102
RTVSPropertyOp28
 70
     1
102
RTVSPropertyOp29
 70
     1
102
RTVSPropertyOp30
 70
     1
102
RTVSPropertyOp31
 70
     1
102
RTVSPropertyOp32
 70
     1
  0
XRECORD
  5
33E
102
{ACAD_REACTORS
330
33D
102
}
330
33D
100
AcDbXrecord
280
     1
102
RTVSPropertyOp0
 70
     1
102
RTVSPropertyOp1
 70
     1
102
RTVSPropertyOp2
 70
     1
102
RTVSPropertyOp3
 70
     1
102
RTVSPropertyOp4
 70
     1
102
RTVSPropertyOp5
 70
     1
102
RTVSPropertyOp6
 70
     1
102
RTVSPropertyOp7
 70
     1
102
RTVSPropertyOp8
 70
     1
102
RTVSPropertyOp9
 70
     1
102
RTVSPropertyOp10
 70
     1
102
RTVSPropertyOp11
 70
     1
102
RTVSPropertyOp12
 70
     1
102
RTVSPropertyOp13
 70
     1
102
RTVSPropertyOp14
 70
     1
102
RTVSPropertyOp15
 70
     1
102
RTVSPropertyOp16
 70
     1
102
RTVSPropertyOp17
 70
     1
102
RTVSPropertyOp18
 70
     1
102
RTVSPropertyOp19
 70
     1
102
RTVSPropertyOp20
 70
     1
102
RTVSPropertyOp21
 70
     1
102
RTVSPropertyOp22
 70
     1
102
RTVSPropertyOp23
 70
     1
102
RTVSPropertyOp24
 70
     1
102
RTVSPropertyOp25
 70
     1
102
RTVSPropertyOp26
 70
     1
102
RTVSPropertyOp27
 70
     1
102
RTVSPropertyOp28
 70
     1
102
RTVSPropertyOp29
 70
     1
102
RTVSPropertyOp30
 70
     1
102
RTVSPropertyOp31
 70
     1
102
RTVSPropertyOp32
 70
     1
  0
XRECORD
  5
340
102
{ACAD_REACTORS
330
33F
102
}
330
33F
100
AcDbXrecord
280
     1
102
RTVSPropertyOp0
 70
     1
102
RTVSPropertyOp1
 70
     1
102
RTVSPropertyOp2
 70
     1
102
RTVSPropertyOp3
 70
     1
102
RTVSPropertyOp4
 70
     1
102
RTVSPropertyOp5
 70
     1
102
RTVSPropertyOp6
 70
     1
102
RTVSPropertyOp7
 70
     1
102
RTVSPropertyOp8
 70
     1
102
RTVSPropertyOp9
 70
     1
102
RTVSPropertyOp10
 70
     1
102
RTVSPropertyOp11
 70
     1
102
RTVSPropertyOp12
 70
     1
102
RTVSPropertyOp13
 70
     1
102
RTVSPropertyOp14
 70
     1
102
RTVSPropertyOp15
 70
     1
102
RTVSPropertyOp16
 70
     1
102
RTVSPropertyOp17
 70
     1
102
RTVSPropertyOp18
 70
     1
102
RTVSPropertyOp19
 70
     1
102
RTVSPropertyOp20
 70
     1
102
RTVSPropertyOp21
 70
     1
102
RTVSPropertyOp22
 70
     1
102
RTVSPropertyOp23
 70
     1
102
RTVSPropertyOp24
 70
     1
102
RTVSPropertyOp25
 70
     1
102
RTVSPropertyOp26
 70
     1
102
RTVSPropertyOp27
 70
     1
102
RTVSPropertyOp28
 70
     1
102
RTVSPropertyOp29
 70
     1
102
RTVSPropertyOp30
 70
     1
102
RTVSPropertyOp31
 70
     1
102
RTVSPropertyOp32
 70
     1
  0
XRECORD
  5
32C
102
{ACAD_REACTORS
330
32B
102
}
330
32B
100
AcDbXrecord
280
     1
102
RTVSPropertyOp0
 70
     1
102
RTVSPropertyOp1
 70
     1
102
RTVSPropertyOp2
 70
     1
102
RTVSPropertyOp3
 70
     1
102
RTVSPropertyOp4
 70
     1
102
RTVSPropertyOp5
 70
     1
102
RTVSPropertyOp6
 70
     1
102
RTVSPropertyOp7
 70
     1
102
RTVSPropertyOp8
 70
     1
102
RTVSPropertyOp9
 70
     1
102
RTVSPropertyOp10
 70
     1
102
RTVSPropertyOp11
 70
     1
102
RTVSPropertyOp12
 70
     1
102
RTVSPropertyOp13
 70
     1
102
RTVSPropertyOp14
 70
     1
102
RTVSPropertyOp15
 70
     1
102
RTVSPropertyOp16
 70
     1
102
RTVSPropertyOp17
 70
     1
102
RTVSPropertyOp18
 70
     1
102
RTVSPropertyOp19
 70
     1
102
RTVSPropertyOp20
 70
     1
102
RTVSPropertyOp21
 70
     1
102
RTVSPropertyOp22
 70
     1
102
RTVSPropertyOp23
 70
     1
102
RTVSPropertyOp24
 70
     1
102
RTVSPropertyOp25
 70
     1
102
RTVSPropertyOp26
 70
     1
102
RTVSPropertyOp27
 70
     1
102
RTVSPropertyOp28
 70
     1
102
RTVSPropertyOp29
 70
     1
102
RTVSPropertyOp30
 70
     1
102
RTVSPropertyOp31
 70
     1
102
RTVSPropertyOp32
 70
     1
  0
XRECORD
  5
33A
102
{ACAD_REACTORS
330
339
102
}
330
339
100
AcDbXrecord
280
     1
102
RTVSPropertyOp0
 70
     1
102
RTVSPropertyOp1
 70
     1
102
RTVSPropertyOp2
 70
     1
102
RTVSPropertyOp3
 70
     1
102
RTVSPropertyOp4
 70
     1
102
RTVSPropertyOp5
 70
     1
102
RTVSPropertyOp6
 70
     1
102
RTVSPropertyOp7
 70
     1
102
RTVSPropertyOp8
 70
     1
102
RTVSPropertyOp9
 70
     1
102
RTVSPropertyOp10
 70
     1
102
RTVSPropertyOp11
 70
     1
102
RTVSPropertyOp12
 70
     1
102
RTVSPropertyOp13
 70
     1
102
RTVSPropertyOp14
 70
     1
102
RTVSPropertyOp15
 70
     1
102
RTVSPropertyOp16
 70
     1
102
RTVSPropertyOp17
 70
     1
102
RTVSPropertyOp18
 70
     1
102
RTVSPropertyOp19
 70
     1
102
RTVSPropertyOp20
 70
     1
102
RTVSPropertyOp21
 70
     1
102
RTVSPropertyOp22
 70
     1
102
RTVSPropertyOp23
 70
     1
102
RTVSPropertyOp24
 70
     1
102
RTVSPropertyOp25
 70
     1
102
RTVSPropertyOp26
 70
     1
102
RTVSPropertyOp27
 70
     1
102
RTVSPropertyOp28
 70
     1
102
RTVSPropertyOp29
 70
     1
102
RTVSPropertyOp30
 70
     1
102
RTVSPropertyOp31
 70
     1
102
RTVSPropertyOp32
 70
     1
  0
XRECORD
  5
342
102
{ACAD_REACTORS
330
341
102
}
330
341
100
AcDbXrecord
280
     1
102
RTVSPropertyOp0
 70
     1
102
RTVSPropertyOp1
 70
     1
102
RTVSPropertyOp2
 70
     1
102
RTVSPropertyOp3
 70
     1
102
RTVSPropertyOp4
 70
     1
102
RTVSPropertyOp5
 70
     1
102
RTVSPropertyOp6
 70
     1
102
RTVSPropertyOp7
 70
     1
102
RTVSPropertyOp8
 70
     1
102
RTVSPropertyOp9
 70
     1
102
RTVSPropertyOp10
 70
     1
102
RTVSPropertyOp11
 70
     1
102
RTVSPropertyOp12
 70
     1
102
RTVSPropertyOp13
 70
     1
102
RTVSPropertyOp14
 70
     1
102
RTVSPropertyOp15
 70
     1
102
RTVSPropertyOp16
 70
     1
102
RTVSPropertyOp17
 70
     1
102
RTVSPropertyOp18
 70
     1
102
RTVSPropertyOp19
 70
     1
102
RTVSPropertyOp20
 70
     1
102
RTVSPropertyOp21
 70
     1
102
RTVSPropertyOp22
 70
     1
102
RTVSPropertyOp23
 70
     1
102
RTVSPropertyOp24
 70
     1
102
RTVSPropertyOp25
 70
     1
102
RTVSPropertyOp26
 70
     1
102
RTVSPropertyOp27
 70
     1
102
RTVSPropertyOp28
 70
     1
102
RTVSPropertyOp29
 70
     1
102
RTVSPropertyOp30
 70
     1
102
RTVSPropertyOp31
 70
     1
102
RTVSPropertyOp32
 70
     1
  0
ENDSEC
  0
EOF
