  0
SECTION
  2
HEADER
  9
$ACADVER
  1
AC1015
  9
$ACADMAINTVER
 70
     6
  9
$DWGCODEPAGE
  3
ANSI_1252
  9
$INSBASE
 10
0.0
 20
0.0
 30
0.0
  9
$EXTMIN
 10
-0.5
 20
-0.5
 30
-0.5
  9
$EXTMAX
 10
5.0
 20
5.0
 30
5.0
  9
$LIMMIN
 10
-0.5
 20
-0.5
  9
$LIMMAX
 10
5.0
 20
5.0
  9
$ORTHOMODE
 70
     0
  9
$REGENMODE
 70
     1
  9
$FILLMODE
 70
     1
  9
$QTEXTMODE
 70
     0
  9
$MIRRTEXT
 70
     1
  9
$LTSCALE
 40
1.0
  9
$ATTMODE
 70
     1
  9
$TEXTSIZE
 40
0.2
  9
$TRACEWID
 40
0.05
  9
$TEXTSTYLE
  7
Standard
  9
$CLAYER
  8
0
  9
$CELTYPE
  6
Continuous
  9
$CECOLOR
 62
   256
  9
$CELTSCALE
 40
1.0
  9
$DISPSILH
 70
     0
  9
$DIMSCALE
 40
1.0
  9
$DIMASZ
 40
0.18
  9
$DIMEXO
 40
0.0625
  9
$DIMDLI
 40
0.38
  9
$DIMRND
 40
0.0
  9
$DIMDLE
 40
0.0
  9
$DIMEXE
 40
0.18
  9
$DIMTP
 40
0.0
  9
$DIMTM
 40
0.0
  9
$DIMTXT
 40
0.18
  9
$DIMCEN
 40
0.09
  9
$DIMTSZ
 40
0.0
  9
$DIMTOL
 70
     0
  9
$DIMLIM
 70
     0
  9
$DIMTIH
 70
     1
  9
$DIMTOH
 70
     1
  9
$DIMSE1
 70
     0
  9
$DIMSE2
 70
     0
  9
$DIMTAD
 70
     0
  9
$DIMZIN
 70
     0
  9
$DIMBLK
  1

  9
$DIMASO
 70
     1
  9
$DIMSHO
 70
     1
  9
$DIMPOST
  1

  9
$DIMAPOST
  1

  9
$DIMALT
 70
     0
  9
$DIMALTD
 70
     2
  9
$DIMALTF
 40
25.4
  9
$DIMLFAC
 40
1.0
  9
$DIMTOFL
 70
     0
  9
$DIMTVP
 40
0.0
  9
$DIMTIX
 70
     0
  9
$DIMSOXD
 70
     0
  9
$DIMSAH
 70
     0
  9
$DIMBLK1
  1

  9
$DIMBLK2
  1

  9
$DIMSTYLE
  2
Standard
  9
$DIMCLRD
 70
     0
  9
$DIMCLRE
 70
     0
  9
$DIMCLRT
 70
     0
  9
$DIMTFAC
 40
1.0
  9
$DIMGAP
 40
0.09
  9
$DIMJUST
 70
     0
  9
$DIMSD1
 70
     0
  9
$DIMSD2
 70
     0
  9
$DIMTOLJ
 70
     1
  9
$DIMTZIN
 70
     0
  9
$DIMALTZ
 70
     0
  9
$DIMALTTZ
 70
     0
  9
$DIMUPT
 70
     0
  9
$DIMDEC
 70
     4
  9
$DIMTDEC
 70
     4
  9
$DIMALTU
 70
     2
  9
$DIMALTTD
 70
     2
  9
$DIMTXSTY
  7
Standard
  9
$DIMAUNIT
 70
     0
  9
$DIMADEC
 70
     0
  9
$DIMALTRND
 40
0.0
  9
$DIMAZIN
 70
     0
  9
$DIMDSEP
 70
     0
  9
$DIMATFIT
 70
     3
  9
$DIMFRAC
 70
     0
  9
$DIMLDRBLK
  1

  9
$DIMLUNIT
 70
     2
  9
$DIMLWD
 70
     0
  9
$DIMLWE
 70
     0
  9
$DIMTMOVE
 70
     0
  9
$LUNITS
 70
     2
  9
$LUPREC
 70
     4
  9
$SKETCHINC
 40
0.1
  9
$FILLETRAD
 40
0.0
  9
$AUNITS
 70
     0
  9
$AUPREC
 70
     0
  9
$MENU
  1
acad
  9
$ELEVATION
 40
0.0
  9
$PELEVATION
 40
0.0
  9
$THICKNESS
 40
0.0
  9
$LIMCHECK
 70
     0
  9
$CHAMFERA
 40
0.0
  9
$CHAMFERB
 40
0.0
  9
$CHAMFERC
 40
0.0
  9
$CHAMFERD
 40
0.0
  9
$SKPOLY
 70
     0
  9
$TDCREATE
 40
0.000000000
  9
$TDUCREATE
 40
0.000000000
  9
$TDUPDATE
 40
0.000000000
  9
$TDUUPDATE
 40
0.000000000
  9
$TDINDWG
 40
0.0000000000
  9
$TDUSRTIMER
 40
0.0000000000
  9
$USRTIMER
 70
     1
  9
$ANGBASE
 50
0.0
  9
$ANGDIR
 70
     0
  9
$PDMODE
 70
     0
  9
$PDSIZE
 40
0.0
  9
$PLINEWID
 40
0.0
  9
$SPLFRAME
 70
     0
  9
$SPLINETYPE
 70
     6
  9
$SPLINESEGS
 70
     8
  9
$HANDSEED
  5
4C4
  9
$SURFTAB1
 70
     6
  9
$SURFTAB2
 70
     6
  9
$SURFTYPE
 70
     6
  9
$SURFU
 70
     6
  9
$SURFV
 70
     6
  9
$UCSBASE
  2

  9
$UCSNAME
  2

  9
$UCSORG
 10
0.0
 20
0.0
 30
0.0
  9
$UCSXDIR
 10
1.0
 20
0.0
 30
0.0
  9
$UCSYDIR
 10
0.0
 20
1.0
 30
0.0
  9
$UCSORTHOREF
  2

  9
$UCSORTHOVIEW
 70
     0
  9
$UCSORGTOP
 10
0.0
 20
0.0
 30
0.0
  9
$UCSORGBOTTOM
 10
0.0
 20
0.0
 30
0.0
  9
$UCSORGLEFT
 10
0.0
 20
0.0
 30
0.0
  9
$UCSORGRIGHT
 10
0.0
 20
0.0
 30
0.0
  9
$UCSORGFRONT
 10
0.0
 20
0.0
 30
0.0
  9
$UCSORGBACK
 10
0.0
 20
0.0
 30
0.0
  9
$PUCSBASE
  2

  9
$PUCSNAME
  2

  9
$PUCSORG
 10
0.0
 20
0.0
 30
0.0
  9
$PUCSXDIR
 10
1.0
 20
0.0
 30
0.0
  9
$PUCSYDIR
 10
0.0
 20
1.0
 30
0.0
  9
$PUCSORTHOREF
  2

  9
$PUCSORTHOVIEW
 70
     0
  9
$PUCSORGTOP
 10
0.0
 20
0.0
 30
0.0
  9
$PUCSORGBOTTOM
 10
0.0
 20
0.0
 30
0.0
  9
$PUCSORGLEFT
 10
0.0
 20
0.0
 30
0.0
  9
$PUCSORGRIGHT
 10
0.0
 20
0.0
 30
0.0
  9
$PUCSORGFRONT
 10
0.0
 20
0.0
 30
0.0
  9
$PUCSORGBACK
 10
0.0
 20
0.0
 30
0.0
  9
$USERI1
 70
     0
  9
$USERI2
 70
     0
  9
$USERI3
 70
     0
  9
$USERI4
 70
     0
  9
$USERI5
 70
     0
  9
$USERR1
 40
0.0
  9
$USERR2
 40
0.0
  9
$USERR3
 40
0.0
  9
$USERR4
 40
0.0
  9
$USERR5
 40
0.0
  9
$WORLDVIEW
 70
     1
  9
$SHADEDGE
 70
     3
  9
$SHADEDIF
 70
    70
  9
$TILEMODE
 70
     0
  9
$MAXACTVP
 70
    64
  9
$PINSBASE
 10
0.0
 20
0.0
 30
0.0
  9
$PLIMCHECK
 70
     0
  9
$PEXTMIN
 10
-0.5
 20
-0.5
 30
-0.5
  9
$PEXTMAX
 10
11.0
 20
8.5
 30
5.0
  9
$PLIMMIN
 10
-0.5
 20
-0.5
  9
$PLIMMAX
 10
11.0
 20
8.5
  9
$UNITMODE
 70
     0
  9
$VISRETAIN
 70
     0
  9
$PLINEGEN
 70
     1
  9
$PSLTSCALE
 70
     0
  9
$TREEDEPTH
 70
  3020
  9
$CMLSTYLE
  2
Standard
  9
$CMLJUST
 70
     0
  9
$CMLSCALE
 40
1.0
  9
$PROXYGRAPHICS
 70
     0
  9
$MEASUREMENT
 70
     0
  9
$CELWEIGHT
370
     0
  9
$ENDCAPS
280
     0
  9
$JOINSTYLE
280
     0
  9
$LWDISPLAY
290
     0
  9
$INSUNITS
 70
     0
  9
$HYPERLINKBASE
  1

  9
$STYLESHEET
  1

  9
$XEDIT
290
     1
  9
$CEPSNTYPE
380
     0
  9
$PSTYLEMODE
290
     1
  9
$FINGERPRINTGUID
  2

  9
$VERSIONGUID
  2

  9
$EXTNAMES
290
     1
  9
$PSVPSCALE
 40
0.0
  0
ENDSEC
  0
SECTION
  2
CLASSES
  0
CLASS
  1
LWPOLYLINE
  2
AcDbPolyline
  3
AutoCAD 2000
 90
        0
280
     0
281
     1
  0
CLASS
  1
IMAGE
  2
AcDbRasterImage
  3
ISM
 90
      127
280
     0
281
     1
  0
CLASS
  1
OLE2FRAME
  2
AcDbOle2Frame
  3
AutoCAD 2000
 90
        0
280
     0
281
     1
  0
CLASS
  1
HATCH
  2
AcDbHatch
  3
AutoCAD 2000
 90
        0
280
     0
281
     1
  0
CLASS
  1
DICTIONARYVAR
  2
AcDbDictionaryVar
  3
AutoCAD 2000
 90
        0
280
     0
281
     0
  0
CLASS
  1
RASTERVARIABLES
  2
AcDbRasterVariables
  3
ISM
 90
        0
280
     0
281
     0
  0
CLASS
  1
IMAGEDEF
  2
AcDbRasterImageDef
  3
ISM
 90
        0
280
     0
281
     0
  0
CLASS
  1
IMAGEDEF_REACTOR
  2
AcDbRasterImageDefReactor
  3
ISM
 90
        1
280
     0
281
     0
  0
CLASS
  1
IDBUFFER
  2
AcDbIdBuffer
  3
AutoCAD 2000
 90
        0
280
     0
281
     0
  0
CLASS
  1
SPATIAL_FILTER
  2
AcDbSpatialFilter
  3
AutoCAD 2000
 90
        0
280
     0
281
     0
  0
CLASS
  1
XRECORD
  2
AcDbXrecord
  3
AutoCAD 2000
 90
        0
280
     0
281
     0
  0
CLASS
  1
SORTENTSTABLE
  2
AcDbSortentsTable
  3
AutoCAD 2000
 90
        0
280
     0
281
     0
  0
CLASS
  1
LAYER_INDEX
  2
AcDbLayerIndex
  3
AutoCAD 2000
 90
        0
280
     0
281
     0
  0
CLASS
  1
SPATIAL_INDEX
  2
AcDbSpatialIndex
  3
AutoCAD 2000
 90
        0
280
     0
281
     0
  0
CLASS
  1
OBJECT_PTR
  2
CAseDLPNTableRecord
  3
"ASE-LPNTableRecord"
 90
        1
280
     0
281
     0
  0
CLASS
  1
LAYOUT
  2
AcDbLayout
  3
AutoCAD 2000
 90
        0
280
     0
281
     0
  0
CLASS
  1
PLOTSETTINGS
  2
AcDbPlotSettings
  3
AutoCAD 2000
 90
        0
280
     0
281
     0
  0
CLASS
  1
ACDBDICTIONARYWDFLT
  2
AcDbDictionaryWithDefault
  3
AutoCAD 2000
 90
        0
280
     0
281
     0
  0
CLASS
  1
ACDBPLACEHOLDER
  2
AcDbPlaceHolder
  3
AutoCAD 2000
 90
        0
280
     0
281
     0
  0
CLASS
  1
VBA_PROJECT
  2
AcDbVbaProject
  3
acadvba
 90
        0
280
     0
281
     0
  0
CLASS
  1
WIPEOUT
  2
AcDbWipeout
  3
WipeOut|AutoCAD Express Tool|expresstools@autodesk.com
 90
      127
280
     0
281
     1
  0
CLASS
  1
WIPEOUTVARIABLES
  2
AcDbWipeoutVariables
  3
WipeOut|AutoCAD Express Tool|expresstools@autodesk.com
 90
        0
280
     0
281
     0
  0
CLASS
  1
RTEXT
  2
RText
  3
RText|AutoCAD Express Tool|expresstools@autodesk.com
 90
        0
280
     0
281
     1
  0
CLASS
  1
ARCALIGNEDTEXT
  2
AcDbArcAlignedText
  3
ATEXT|AutoCAD Express Tool|expresstools@autodesk.com
 90
        0
280
     0
281
     1
  0
ENDSEC
  0
SECTION
  2
TABLES
  0
TABLE
  2
VPORT
  5
7
100
AcDbSymbolTable
 70
    16
  0
VPORT
  5
4B4
100
AcDbSymbolTableRecord
100
AcDbViewportTableRecord
  2
*ACTIVE
 70
     0
 10
0.0
 20
0.0
 11
1.0
 21
1.0
 12
0.0
 22
0.0
 13
0.0
 23
0.0
 14
1.0
 24
1.0
 15
0.0
 25
0.0
 16
0.718873
 26
-0.585049
 36
0.375419
 17
0.0
 27
0.0
 37
0.0
 40
42.769412
 41
0.688564
 42
50.0
 43
21.099858
 44
-21.099858
 50
0.0
 51
0.0
 71
    16
 72
   100
 73
     1
 74
     1
 75
     0
 76
     0
 77
     0
 78
     0
281
     0
 65
     0
110
0.0
120
0.0
130
0.0
111
1.0
121
0.0
131
0.0
112
0.0
122
1.0
132
0.0
345
0
346
0
 79
     0
146
0.0
  0
VPORT
  5
4B5
100
AcDbSymbolTableRecord
100
AcDbViewportTableRecord
  2
L1
 70
     0
 10
0.0
 20
0.0
 11
1.0
 21
1.0
 12
0.0
 22
0.0
 13
0.0
 23
0.0
 14
1.0
 24
1.0
 15
0.0
 25
0.0
 16
0.718873
 26
-0.585049
 36
0.375419
 17
0.0
 27
0.0
 37
0.0
 40
42.769412
 41
0.688564
 42
50.0
 43
21.099858
 44
-21.099858
 50
0.0
 51
0.0
 71
    16
 72
   100
 73
     1
 74
     1
 75
     0
 76
     0
 77
     0
 78
     0
281
     0
 65
     0
110
0.0
120
0.0
130
0.0
111
1.0
121
0.0
131
0.0
112
0.0
122
1.0
132
0.0
345
0
346
0
 79
     0
146
0.0
  0
VPORT
  5
4B6
100
AcDbSymbolTableRecord
100
AcDbViewportTableRecord
  2
L2
 70
     0
 10
0.0
 20
0.0
 11
0.5
 21
1.0
 12
0.0
 22
0.0
 13
0.0
 23
0.0
 14
1.0
 24
1.0
 15
0.0
 25
0.0
 16
0.0
 26
-1.0
 36
0.0
 17
0.0
 27
0.0
 37
0.0
 40
41.170454
 41
0.688564
 42
50.0
 43
21.430301
 44
-21.430301
 50
0.0
 51
0.0
 71
    16
 72
   100
 73
     1
 74
     1
 75
     0
 76
     0
 77
     0
 78
     0
281
     0
 65
     0
110
0.0
120
0.0
130
0.0
111
1.0
121
0.0
131
0.0
112
0.0
122
1.0
132
0.0
345
0
346
0
 79
     0
146
0.0
  0
VPORT
  5
4B7
100
AcDbSymbolTableRecord
100
AcDbViewportTableRecord
  2
L2
 70
     0
 10
0.5
 20
0.0
 11
1.0
 21
1.0
 12
0.0
 22
0.0
 13
0.0
 23
0.0
 14
1.0
 24
1.0
 15
0.0
 25
0.0
 16
1.0
 26
0.0
 36
0.0
 17
0.0
 27
0.0
 37
0.0
 40
41.170454
 41
0.688564
 42
50.0
 43
20.725352
 44
-20.725352
 50
0.0
 51
0.0
 71
    16
 72
   100
 73
     1
 74
     1
 75
     0
 76
     0
 77
     0
 78
     0
281
     0
 65
     0
110
0.0
120
0.0
130
0.0
111
1.0
121
0.0
131
0.0
112
0.0
122
1.0
132
0.0
345
0
346
0
 79
     0
146
0.0
  0
VPORT
  5
4B8
100
AcDbSymbolTableRecord
100
AcDbViewportTableRecord
  2
L3
 70
     0
 10
0.0
 20
0.5
 11
1.0
 21
1.0
 12
0.0
 22
0.0
 13
0.0
 23
0.0
 14
1.0
 24
1.0
 15
0.0
 25
0.0
 16
0.0
 26
0.0
 36
1.0
 17
0.0
 27
0.0
 37
0.0
 40
4.811924
 41
0.688564
 42
50.0
 43
20.585227
 44
-20.585227
 50
0.0
 51
0.0
 71
    16
 72
   100
 73
     1
 74
     1
 75
     0
 76
     0
 77
     0
 78
     0
281
     0
 65
     0
110
0.0
120
0.0
130
0.0
111
1.0
121
0.0
131
0.0
112
0.0
122
1.0
132
0.0
345
0
346
0
 79
     0
146
0.0
  0
VPORT
  5
4B9
100
AcDbSymbolTableRecord
100
AcDbViewportTableRecord
  2
L3
 70
     0
 10
0.0
 20
0.0
 11
1.0
 21
0.5
 12
0.0
 22
0.0
 13
0.0
 23
0.0
 14
1.0
 24
1.0
 15
0.0
 25
0.0
 16
0.0
 26
-1.0
 36
0.0
 17
0.0
 27
0.0
 37
0.0
 40
41.170454
 41
0.688564
 42
50.0
 43
21.430301
 44
-21.430301
 50
0.0
 51
0.0
 71
    16
 72
   100
 73
     1
 74
     1
 75
     0
 76
     0
 77
     0
 78
     0
281
     0
 65
     0
110
0.0
120
0.0
130
0.0
111
1.0
121
0.0
131
0.0
112
0.0
122
1.0
132
0.0
345
0
346
0
 79
     0
146
0.0
  0
VPORT
  5
4BA
100
AcDbSymbolTableRecord
100
AcDbViewportTableRecord
  2
L4
 70
     0
 10
0.0
 20
0.5
 11
0.5
 21
1.0
 12
0.0
 22
0.0
 13
0.0
 23
0.0
 14
1.0
 24
1.0
 15
0.0
 25
0.0
 16
0.0
 26
0.0
 36
1.0
 17
0.0
 27
0.0
 37
0.0
 40
4.811924
 41
0.688564
 42
50.0
 43
20.585227
 44
-20.585227
 50
0.0
 51
0.0
 71
    16
 72
   100
 73
     1
 74
     1
 75
     0
 76
     0
 77
     0
 78
     0
281
     0
 65
     0
110
0.0
120
0.0
130
0.0
111
1.0
121
0.0
131
0.0
112
0.0
122
1.0
132
0.0
345
0
346
0
 79
     0
146
0.0
  0
VPORT
  5
4BB
100
AcDbSymbolTableRecord
100
AcDbViewportTableRecord
  2
L4
 70
     0
 10
0.0
 20
0.0
 11
0.5
 21
0.5
 12
0.0
 22
0.0
 13
0.0
 23
0.0
 14
1.0
 24
1.0
 15
0.0
 25
0.0
 16
0.0
 26
-1.0
 36
0.0
 17
0.0
 27
0.0
 37
0.0
 40
41.170454
 41
0.688564
 42
50.0
 43
21.430301
 44
-21.430301
 50
0.0
 51
0.0
 71
    16
 72
   100
 73
     1
 74
     1
 75
     0
 76
     0
 77
     0
 78
     0
281
     0
 65
     0
110
0.0
120
0.0
130
0.0
111
1.0
121
0.0
131
0.0
112
0.0
122
1.0
132
0.0
345
0
346
0
 79
     0
146
0.0
  0
VPORT
  5
4BC
100
AcDbSymbolTableRecord
100
AcDbViewportTableRecord
  2
L4
 70
     0
 10
0.5
 20
0.0
 11
1.0
 21
0.5
 12
0.0
 22
0.0
 13
0.0
 23
0.0
 14
1.0
 24
1.0
 15
0.0
 25
0.0
 16
1.0
 26
0.0
 36
0.0
 17
0.0
 27
0.0
 37
0.0
 40
41.170454
 41
0.688564
 42
50.0
 43
20.725352
 44
-20.725352
 50
0.0
 51
0.0
 71
    16
 72
   100
 73
     1
 74
     1
 75
     0
 76
     0
 77
     0
 78
     0
281
     0
 65
     0
110
0.0
120
0.0
130
0.0
111
1.0
121
0.0
131
0.0
112
0.0
122
1.0
132
0.0
345
0
346
0
 79
     0
146
0.0
  0
VPORT
  5
4BD
100
AcDbSymbolTableRecord
100
AcDbViewportTableRecord
  2
L4
 70
     0
 10
0.5
 20
0.5
 11
1.0
 21
1.0
 12
0.0
 22
0.0
 13
0.0
 23
0.0
 14
1.0
 24
1.0
 15
0.0
 25
0.0
 16
0.57735
 26
-0.57735
 36
0.57735
 17
0.0
 27
0.0
 37
0.0
 40
40.44526
 41
0.688564
 42
50.0
 43
21.069851
 44
-21.069851
 50
0.0
 51
0.0
 71
    16
 72
   100
 73
     1
 74
     1
 75
     0
 76
     0
 77
     0
 78
     0
281
     0
 65
     0
110
0.0
120
0.0
130
0.0
111
1.0
121
0.0
131
0.0
112
0.0
122
1.0
132
0.0
345
0
346
0
 79
     0
146
0.0
  0
VPORT
  5
4BE
100
AcDbSymbolTableRecord
100
AcDbViewportTableRecord
  2
L6
 70
     0
 10
0.0
 20
0.5
 11
0.333333
 21
1.0
 12
0.0
 22
0.0
 13
0.0
 23
0.0
 14
1.0
 24
1.0
 15
0.0
 25
0.0
 16
0.718873
 26
-0.585049
 36
0.375419
 17
0.0
 27
0.0
 37
0.0
 40
42.769412
 41
0.688564
 42
50.0
 43
21.099858
 44
-21.099858
 50
0.0
 51
0.0
 71
    16
 72
   100
 73
     1
 74
     1
 75
     0
 76
     0
 77
     0
 78
     0
281
     0
 65
     0
110
0.0
120
0.0
130
0.0
111
1.0
121
0.0
131
0.0
112
0.0
122
1.0
132
0.0
345
0
346
0
 79
     0
146
0.0
  0
VPORT
  5
4BF
100
AcDbSymbolTableRecord
100
AcDbViewportTableRecord
  2
L6
 70
     0
 10
0.0
 20
0.0
 11
0.333333
 21
0.5
 12
0.0
 22
0.0
 13
0.0
 23
0.0
 14
1.0
 24
1.0
 15
0.0
 25
0.0
 16
-1.0
 26
0.0
 36
0.0
 17
0.0
 27
0.0
 37
0.0
 40
41.170454
 41
0.688564
 42
50.0
 43
20.725352
 44
-20.725352
 50
0.0
 51
0.0
 71
    16
 72
   100
 73
     1
 74
     1
 75
     0
 76
     0
 77
     0
 78
     0
281
     0
 65
     0
110
0.0
120
0.0
130
0.0
111
1.0
121
0.0
131
0.0
112
0.0
122
1.0
132
0.0
345
0
346
0
 79
     0
146
0.0
  0
VPORT
  5
4C0
100
AcDbSymbolTableRecord
100
AcDbViewportTableRecord
  2
L6
 70
     0
 10
0.333333
 20
0.5
 11
0.666667
 21
1.0
 12
0.0
 22
0.0
 13
0.0
 23
0.0
 14
1.0
 24
1.0
 15
0.0
 25
0.0
 16
0.0
 26
0.0
 36
1.0
 17
0.0
 27
0.0
 37
0.0
 40
4.811924
 41
0.688564
 42
50.0
 43
20.585227
 44
-20.585227
 50
0.0
 51
0.0
 71
    16
 72
   100
 73
     1
 74
     1
 75
     0
 76
     0
 77
     0
 78
     0
281
     0
 65
     0
110
0.0
120
0.0
130
0.0
111
1.0
121
0.0
131
0.0
112
0.0
122
1.0
132
0.0
345
0
346
0
 79
     0
146
0.0
  0
VPORT
  5
4C1
100
AcDbSymbolTableRecord
100
AcDbViewportTableRecord
  2
L6
 70
     0
 10
0.333333
 20
0.0
 11
0.666667
 21
0.5
 12
0.0
 22
0.0
 13
0.0
 23
0.0
 14
1.0
 24
1.0
 15
0.0
 25
0.0
 16
0.0
 26
-1.0
 36
0.0
 17
0.0
 27
0.0
 37
0.0
 40
41.170454
 41
0.688564
 42
50.0
 43
21.430301
 44
-21.430301
 50
0.0
 51
0.0
 71
    16
 72
   100
 73
     1
 74
     1
 75
     0
 76
     0
 77
     0
 78
     0
281
     0
 65
     0
110
0.0
120
0.0
130
0.0
111
1.0
121
0.0
131
0.0
112
0.0
122
1.0
132
0.0
345
0
346
0
 79
     0
146
0.0
  0
VPORT
  5
4C2
100
AcDbSymbolTableRecord
100
AcDbViewportTableRecord
  2
L6
 70
     0
 10
0.666667
 20
0.5
 11
1.0
 21
1.0
 12
0.0
 22
0.0
 13
0.0
 23
0.0
 14
1.0
 24
1.0
 15
0.0
 25
0.0
 16
0.57735
 26
-0.57735
 36
0.57735
 17
0.0
 27
0.0
 37
0.0
 40
40.44526
 41
0.688564
 42
50.0
 43
21.069851
 44
-21.069851
 50
0.0
 51
0.0
 71
    16
 72
   100
 73
     1
 74
     1
 75
     0
 76
     0
 77
     0
 78
     0
281
     0
 65
     0
110
0.0
120
0.0
130
0.0
111
1.0
121
0.0
131
0.0
112
0.0
122
1.0
132
0.0
345
0
346
0
 79
     0
146
0.0
  0
VPORT
  5
4C3
100
AcDbSymbolTableRecord
100
AcDbViewportTableRecord
  2
L6
 70
     0
 10
0.666667
 20
0.0
 11
1.0
 21
0.5
 12
0.0
 22
0.0
 13
0.0
 23
0.0
 14
1.0
 24
1.0
 15
0.0
 25
0.0
 16
1.0
 26
0.0
 36
0.0
 17
0.0
 27
0.0
 37
0.0
 40
41.170454
 41
0.688564
 42
50.0
 43
20.725352
 44
-20.725352
 50
0.0
 51
0.0
 71
    16
 72
   100
 73
     1
 74
     1
 75
     0
 76
     0
 77
     0
 78
     0
281
     0
 65
     0
110
0.0
120
0.0
130
0.0
111
1.0
121
0.0
131
0.0
112
0.0
122
1.0
132
0.0
345
0
346
0
 79
     0
146
0.0
  0
ENDTAB
  0
TABLE
  2
LTYPE
  5
4
100
AcDbSymbolTable
 70
     9
  0
LTYPE
  5
11
100
AcDbSymbolTableRecord
100
AcDbLinetypeTableRecord
  2
ByBlock
 70
    64
  3

 72
    65
 73
     0
 40
0.0
  0
LTYPE
  5
12
100
AcDbSymbolTableRecord
100
AcDbLinetypeTableRecord
  2
ByLayer
 70
    64
  3

 72
    65
 73
     0
 40
0.0
  0
LTYPE
  5
13
100
AcDbSymbolTableRecord
100
AcDbLinetypeTableRecord
  2
Continuous
 70
    64
  3
Solid line
 72
    65
 73
     0
 40
0.0
  0
LTYPE
  5
24
100
AcDbSymbolTableRecord
100
AcDbLinetypeTableRecord
  2
DASHED
 70
    64
  3
__ __ __ __ __ __ __ __ __
 72
    65
 73
     2
 40
25.72
 49
12.86
 74
     0
 49
-12.86
 74
     0
  0
LTYPE
  5
25
100
AcDbSymbolTableRecord
100
AcDbLinetypeTableRecord
  2
HIDDEN
 70
    64
  3
_ _ _ _ _ _ _ _ _ _ _ _ _ _ _
 72
    65
 73
     2
 40
0.5
 49
0.25
 74
     0
 49
-0.25
 74
     0
  0
LTYPE
  5
26
100
AcDbSymbolTableRecord
100
AcDbLinetypeTableRecord
  2
PHANTOM
 70
    64
  3
____ _ _ ____ _ _ _____ _ _ ____
 72
    65
 73
     6
 40
50.5
 49
18.0
 74
     0
 49
-6.5
 74
     0
 49
6.5
 74
     0
 49
-6.5
 74
     0
 49
6.5
 74
     0
 49
-6.5
 74
     0
  0
LTYPE
  5
27
100
AcDbSymbolTableRecord
100
AcDbLinetypeTableRecord
  2
CENTER
 70
    64
  3
____ _ ____ _ ____ _ ____
 72
    65
 73
     4
 40
47.5
 49
22.0
 74
     0
 49
-8.5
 74
     0
 49
8.5
 74
     0
 49
-8.5
 74
     0
  0
LTYPE
  5
28
100
AcDbSymbolTableRecord
100
AcDbLinetypeTableRecord
  2
DOT
 70
    64
  3
.........................
 72
    65
 73
     2
 40
10.0
 49
0.0
 74
     0
 49
-10.0
 74
     0
  0
LTYPE
  5
29
100
AcDbSymbolTableRecord
100
AcDbLinetypeTableRecord
  2
DASHDOT
 70
    64
  3
_._._._._._._._._._._._._._._._.
 72
    65
 73
     4
 40
70.0
 49
31.0
 74
     0
 49
-13.0
 74
     0
 49
13.0
 74
     0
 49
-13.0
 74
     0
  0
ENDTAB
  0
TABLE
  2
LAYER
  5
2
100
AcDbSymbolTable
 70
     2
  0
LAYER
  5
14
100
AcDbSymbolTableRecord
100
AcDbLayerTableRecord
  2
0
 70
     0
 62
     7
  6
Continuous
290
     1
370
    -3
390
1D
  0
LAYER
  5
34
100
AcDbSymbolTableRecord
100
AcDbLayerTableRecord
  2
1
 70
     0
 62
     7
  6
Continuous
290
     1
370
    -3
390
1D
  0
ENDTAB
  0
TABLE
  2
STYLE
  5
3
100
AcDbSymbolTable
 70
     2
  0
STYLE
  5
17
100
AcDbSymbolTableRecord
100
AcDbTextStyleTableRecord
  2
Standard
 70
     0
 40
0.0
 41
1.0
 50
0.0
 71
     0
 42
0.0
  3
txt
  4

  0
STYLE
  5
438
100
AcDbSymbolTableRecord
100
AcDbTextStyleTableRecord
  2
blockfont
 70
     0
 40
0.0
 41
1.0
 50
0.0
 71
     0
 42
0.2
  3
simplex.shx
  4

  0
ENDTAB
  0
TABLE
  2
VIEW
  5
5
100
AcDbSymbolTable
 70
     8
  0
VIEW
  5
2A
100
AcDbSymbolTableRecord
100
AcDbViewTableRecord
  2
TOP
 70
     0
 40
4.811924
 10
0.0
 20
0.0
 41
11.917417
 11
0.0
 21
0.0
 31
1.0
 12
0.0
 22
0.0
 32
0.0
 42
50.0
 43
20.585227
 44
-20.585227
 50
0.0
 71
    16
281
     0
 72
     0
110
0.0
120
0.0
130
0.0
111
1.0
121
0.0
131
0.0
112
0.0
122
1.0
132
0.0
  0
VIEW
  5
2B
100
AcDbSymbolTableRecord
100
AcDbViewTableRecord
  2
FRONT
 70
     0
 40
41.170454
 10
0.0
 20
0.0
 41
11.917417
 11
0.0
 21
-1.0
 31
0.0
 12
0.0
 22
0.0
 32
0.0
 42
50.0
 43
21.430301
 44
-21.430301
 50
0.0
 71
    16
281
     0
 72
     0
110
0.0
120
0.0
130
0.0
111
1.0
121
0.0
131
0.0
112
0.0
122
1.0
132
0.0
  0
VIEW
  5
2C
100
AcDbSymbolTableRecord
100
AcDbViewTableRecord
  2
RIGHT
 70
     0
 40
41.170454
 10
0.0
 20
0.0
 41
4.811924
 11
1.0
 21
0.0
 31
0.0
 12
0.0
 22
0.0
 32
0.0
 42
50.0
 43
20.725352
 44
-20.725352
 50
0.0
 71
    16
281
     0
 72
     0
110
0.0
120
0.0
130
0.0
111
1.0
121
0.0
131
0.0
112
0.0
122
1.0
132
0.0
  0
VIEW
  5
2D
100
AcDbSymbolTableRecord
100
AcDbViewTableRecord
  2
BACK
 70
     0
 40
41.170454
 10
0.0
 20
0.0
 41
11.917417
 11
0.0
 21
1.0
 31
0.0
 12
0.0
 22
0.0
 32
0.0
 42
50.0
 43
21.430301
 44
-21.430301
 50
0.0
 71
    16
281
     0
 72
     0
110
0.0
120
0.0
130
0.0
111
1.0
121
0.0
131
0.0
112
0.0
122
1.0
132
0.0
  0
VIEW
  5
2E
100
AcDbSymbolTableRecord
100
AcDbViewTableRecord
  2
BOTTOM
 70
     0
 40
4.811924
 10
0.0
 20
0.0
 41
11.917417
 11
0.0
 21
0.0
 31
-1.0
 12
0.0
 22
0.0
 32
0.0
 42
50.0
 43
20.585227
 44
-20.585227
 50
180.0
 71
    16
281
     0
 72
     0
110
0.0
120
0.0
130
0.0
111
1.0
121
0.0
131
0.0
112
0.0
122
1.0
132
0.0
  0
VIEW
  5
2F
100
AcDbSymbolTableRecord
100
AcDbViewTableRecord
  2
LEFT
 70
     0
 40
41.170454
 10
0.0
 20
0.0
 41
4.811924
 11
-1.0
 21
0.0
 31
0.0
 12
0.0
 22
0.0
 32
0.0
 42
50.0
 43
20.725352
 44
-20.725352
 50
0.0
 71
    16
281
     0
 72
     0
110
0.0
120
0.0
130
0.0
111
1.0
121
0.0
131
0.0
112
0.0
122
1.0
132
0.0
  0
VIEW
  5
30
100
AcDbSymbolTableRecord
100
AcDbViewTableRecord
  2
TFR-ISO
 70
     0
 40
40.44526
 10
0.0
 20
0.0
 41
11.82943
 11
0.57735
 21
-0.57735
 31
0.57735
 12
0.0
 22
0.0
 32
0.0
 42
50.0
 43
21.069851
 44
-21.069851
 50
0.0
 71
    16
281
     0
 72
     0
110
0.0
120
0.0
130
0.0
111
1.0
121
0.0
131
0.0
112
0.0
122
1.0
132
0.0
  0
VIEW
  5
31
100
AcDbSymbolTableRecord
100
AcDbViewTableRecord
  2
TFR-TRI
 70
     0
 40
42.769412
 10
0.0
 20
0.0
 41
11.25465
 11
0.718873
 21
-0.585049
 31
0.375419
 12
0.0
 22
0.0
 32
0.0
 42
50.0
 43
22.112721
 44
-22.112721
 50
0.0
 71
    16
281
     0
 72
     0
110
0.0
120
0.0
130
0.0
111
1.0
121
0.0
131
0.0
112
0.0
122
1.0
132
0.0
  0
ENDTAB
  0
TABLE
  2
UCS
  5
6
100
AcDbSymbolTable
 70
     0
  0
ENDTAB
  0
TABLE
  2
APPID
  5
8
100
AcDbSymbolTable
 70
     1
  0
APPID
  5
16
100
AcDbSymbolTableRecord
100
AcDbRegAppTableRecord
  2
ACAD
 70
     0
  0
ENDTAB
  0
TABLE
  2
DIMSTYLE
  5
9
100
AcDbSymbolTable
 70
     1
100
AcDbDimStyleTable
 71
     0
  0
DIMSTYLE
105
18
100
AcDbSymbolTableRecord
100
AcDbDimStyleTableRecord
  2
Standard
 70
     0
  3

  4

 40
1.0
 41
0.18
 42
0.0625
 43
0.38
 44
0.18
 45
0.0
 46
0.0
 47
0.0
 48
0.0
 71
     0
 72
     0
 73
     1
 74
     1
 75
     0
 76
     0
 77
     0
 78
     0
 79
     0
140
0.18
141
0.09
142
0.0
143
25.4
144
1.0
145
0.0
146
1.0
147
0.09
148
0.0
170
     0
171
     2
172
     0
173
     0
174
     0
175
     0
176
     0
177
     0
178
     0
179
     0
271
     4
272
     4
273
     2
274
     2
275
     0
276
     0
277
     2
278
    46
279
     0
280
     0
281
     0
282
     0
283
     1
284
     0
285
     0
286
     0
288
     0
289
     3
340
17
341
0
342
0
343
0
344
0
371
    -2
372
    -2
  0
ENDTAB
  0
TABLE
  2
BLOCK_RECORD
  5
1
100
AcDbSymbolTable
 70
     0
  0
BLOCK_RECORD
  5
A
100
AcDbSymbolTableRecord
100
AcDbBlockTableRecord
  2
*MODEL_SPACE
340
20
  0
BLOCK_RECORD
  5
B
100
AcDbSymbolTableRecord
100
AcDbBlockTableRecord
  2
*PAPER_SPACE
340
21
  0
ENDTAB
  0
ENDSEC
  0
SECTION
  2
BLOCKS
  0
BLOCK
  5
D
100
AcDbEntity
  8
0
390
0
100
AcDbBlockBegin
  2
*MODEL_SPACE
 70
     0
 10
0.0
 20
0.0
 30
0.0
  3
*MODEL_SPACE
  1

  0
ENDBLK
  5
E
100
AcDbEntity
  8
0
390
0
100
AcDbBlockEnd
  0
BLOCK
  5
F
100
AcDbEntity
 67
     1
  8
0
390
0
100
AcDbBlockBegin
  2
*PAPER_SPACE
 70
     0
 10
0.0
 20
0.0
 30
0.0
  3
*PAPER_SPACE
  1

  0
ENDBLK
  5
10
100
AcDbEntity
 67
     1
  8
0
390
0
100
AcDbBlockEnd
  0
ENDSEC
  0
SECTION
  2
ENTITIES
  0
VIEWPORT
  5
32
100
AcDbEntity
 67
     1
  8
0
390
0
100
AcDbViewport
 10
5.5
 20
4.25
 30
0.0
 40
11.0
 41
8.5
 68
     1
 69
     1
 12
5.5
 22
4.25
 13
0.0
 23
0.0
 14
0.0
 24
0.0
 15
0.0
 25
0.0
 16
0.0
 26
0.0
 36
1.0
 17
0.0
 27
0.0
 37
0.0
 42
44.345898
 43
0.0
 44
0.0
 45
8.5
 50
0.0
 51
0.0
 72
   100
 90
    32800
340
0
  1

281
     0
 71
     0
 74
     1
110
0.0
120
0.0
130
0.0
111
1.0
121
0.0
131
0.0
112
0.0
122
1.0
132
0.0
345
0
346
0
 79
     0
146
0.0
  0
LINE
  5
33
100
AcDbEntity
 67
     1
  8
1
390
0
  6
Continuous
 62
     7
100
AcDbLine
 10
0.301655
 20
0.25
 30
0.0
 11
10.75
 21
0.25
 31
0.0
  0
LINE
  5
35
100
AcDbEntity
 67
     1
  8
1
390
0
  6
Continuous
 62
     7
100
AcDbLine
 10
0.301655
 20
8.20386
 30
0.0
 11
10.75
 21
8.20386
 31
0.0
  0
LINE
  5
36
100
AcDbEntity
 67
     1
  8
1
390
0
  6
Continuous
 62
     7
100
AcDbLine
 10
0.301655
 20
8.20386
 30
0.0
 11
0.301655
 21
0.25
 31
0.0
  0
LINE
  5
37
100
AcDbEntity
 67
     1
  8
1
390
0
  6
Continuous
 62
     7
100
AcDbLine
 10
7.357996
 20
0.25
 30
0.0
 11
7.357996
 21
1.037558
 31
0.0
  0
LINE
  5
38
100
AcDbEntity
 67
     1
  8
1
390
0
  6
Continuous
 62
     7
100
AcDbLine
 10
6.585438
 20
2.804295
 30
0.0
 11
6.585438
 21
0.25
 31
0.0
  0
LINE
  5
39
100
AcDbEntity
 67
     1
  8
1
390
0
  6
Continuous
 62
     7
100
AcDbLine
 10
6.191659
 20
0.25
 30
0.0
 11
6.191659
 21
2.573295
 31
0.0
  0
LINE
  5
3A
100
AcDbEntity
 67
     1
  8
1
390
0
  6
Continuous
 62
     7
100
AcDbLine
 10
5.827307
 20
0.25
 30
0.0
 11
5.827307
 21
2.573295
 31
0.0
  0
LINE
  5
3B
100
AcDbEntity
 67
     1
  8
1
390
0
  6
Continuous
 62
     7
100
AcDbLine
 10
5.450266
 20
0.25
 30
0.0
 11
5.450266
 21
2.573295
 31
0.0
  0
LINE
  5
3C
100
AcDbEntity
 67
     1
  8
1
390
0
  6
Continuous
 62
     7
100
AcDbLine
 10
5.125768
 20
0.511645
 30
0.0
 11
5.125768
 21
2.573295
 31
0.0
  0
LINE
  5
3D
100
AcDbEntity
 67
     1
  8
1
390
0
  6
Continuous
 62
     7
100
AcDbLine
 10
0.301655
 20
0.511645
 30
0.0
 11
7.357996
 21
0.511645
 31
0.0
  0
LINE
  5
3E
100
AcDbEntity
 67
     1
  8
1
390
0
  6
Continuous
 62
     7
100
AcDbLine
 10
0.301655
 20
0.784601
 30
0.0
 11
7.357996
 21
0.784601
 31
0.0
  0
LINE
  5
3F
100
AcDbEntity
 67
     1
  8
1
390
0
  6
Continuous
 62
     7
100
AcDbLine
 10
0.301655
 20
1.037558
 30
0.0
 11
10.75
 21
1.037558
 31
0.0
  0
LINE
  5
40
100
AcDbEntity
 67
     1
  8
1
390
0
  6
Continuous
 62
     7
100
AcDbLine
 10
6.585438
 20
1.291514
 30
0.0
 11
0.301655
 21
1.291514
 31
0.0
  0
LINE
  5
41
100
AcDbEntity
 67
     1
  8
1
390
0
  6
Continuous
 62
     7
100
AcDbLine
 10
10.75
 20
1.54347
 30
0.0
 11
6.585438
 21
1.54347
 31
0.0
  0
LINE
  5
42
100
AcDbEntity
 67
     1
  8
1
390
0
  6
Continuous
 62
     7
100
AcDbLine
 10
6.585438
 20
2.057382
 30
0.0
 11
10.75
 21
2.057382
 31
0.0
  0
LINE
  5
43
100
AcDbEntity
 67
     1
  8
1
390
0
  6
Continuous
 62
     7
100
AcDbLine
 10
9.156445
 20
0.784601
 30
0.0
 11
10.75
 21
0.784601
 31
0.0
  0
LINE
  5
44
100
AcDbEntity
 67
     1
  8
1
390
0
  6
Continuous
 62
     7
100
AcDbLine
 10
10.347526
 20
0.784601
 30
0.0
 11
10.347526
 21
0.25
 31
0.0
  0
LINE
  5
45
100
AcDbEntity
 67
     1
  8
1
390
0
  6
Continuous
 62
     7
100
AcDbLine
 10
10.75
 20
8.20386
 30
0.0
 11
10.75
 21
0.25
 31
0.0
  0
LINE
  5
46
100
AcDbEntity
 67
     1
  8
1
390
0
  6
Continuous
 62
     7
100
AcDbLine
 10
0.646582
 20
0.25
 30
0.0
 11
0.646582
 21
2.573295
 31
0.0
  0
LINE
  5
47
100
AcDbEntity
 67
     1
  8
1
390
0
  6
Continuous
 62
     7
100
AcDbLine
 10
1.12633
 20
0.25
 30
0.0
 11
1.12633
 21
2.573295
 31
0.0
  0
LINE
  5
48
100
AcDbEntity
 67
     1
  8
1
390
0
  6
Continuous
 62
     7
100
AcDbLine
 10
1.430401
 20
0.25
 30
0.0
 11
1.430401
 21
2.573295
 31
0.0
  0
LINE
  5
49
100
AcDbEntity
 67
     1
  8
1
390
0
  6
Continuous
 62
     7
100
AcDbLine
 10
1.734424
 20
0.25
 30
0.0
 11
1.734424
 21
2.573295
 31
0.0
  0
LINE
  5
4A
100
AcDbEntity
 67
     1
  8
1
390
0
  6
Continuous
 62
     7
100
AcDbLine
 10
4.511886
 20
0.25
 30
0.0
 11
4.511886
 21
2.573295
 31
0.0
  0
LINE
  5
4B
100
AcDbEntity
 67
     1
  8
1
390
0
  6
Continuous
 62
     7
100
AcDbLine
 10
9.156445
 20
1.51347
 30
0.0
 11
9.156445
 21
0.25
 31
0.0
  0
LINE
  5
4C
100
AcDbEntity
 67
     1
  8
1
390
0
  6
Continuous
 62
     7
100
AcDbLine
 10
0.301655
 20
1.54347
 30
0.0
 11
6.585438
 21
1.54347
 31
0.0
  0
LINE
  5
4D
100
AcDbEntity
 67
     1
  8
1
390
0
  6
Continuous
 62
     7
100
AcDbLine
 10
6.585438
 20
1.799426
 30
0.0
 11
0.301655
 21
1.799426
 31
0.0
  0
LINE
  5
4E
100
AcDbEntity
 67
     1
  8
1
390
0
  6
Continuous
 62
     7
100
AcDbLine
 10
6.585438
 20
2.057382
 30
0.0
 11
0.301655
 21
2.057382
 31
0.0
  0
LINE
  5
4F
100
AcDbEntity
 67
     1
  8
1
390
0
  6
Continuous
 62
     7
100
AcDbLine
 10
6.585438
 20
2.310338
 30
0.0
 11
0.301655
 21
2.310338
 31
0.0
  0
LINE
  5
50
100
AcDbEntity
 67
     1
  8
1
390
0
  6
Continuous
 62
     7
100
AcDbLine
 10
10.75
 20
2.573295
 30
0.0
 11
0.301655
 21
2.573295
 31
0.0
  0
LINE
  5
51
100
AcDbEntity
 67
     1
  8
1
390
0
  6
Continuous
 62
     7
100
AcDbLine
 10
10.75
 20
2.804295
 30
0.0
 11
6.585438
 21
2.804295
 31
0.0
  0
LINE
  5
52
100
AcDbEntity
 67
     1
  8
1
390
0
  6
Continuous
 62
     7
100
AcDbLine
 10
7.242055
 20
1.20782
 30
0.0
 11
7.212055
 21
1.20782
 31
0.0
  0
LINE
  5
53
100
AcDbEntity
 67
     1
  8
1
390
0
  6
Continuous
 62
     7
100
AcDbLine
 10
7.227055
 20
1.22282
 30
0.0
 11
7.227055
 21
1.19282
 31
0.0
  0
LINE
  5
54
100
AcDbEntity
 67
     1
  8
1
390
0
  6
Continuous
 62
     7
100
AcDbLine
 10
7.212055
 20
1.178445
 30
0.0
 11
7.242055
 21
1.178445
 31
0.0
  0
LINE
  5
55
100
AcDbEntity
 67
     1
  8
1
390
0
  6
Continuous
 62
     7
100
AcDbLine
 10
7.242055
 20
1.11182
 30
0.0
 11
7.212055
 21
1.11182
 31
0.0
  0
LINE
  5
56
100
AcDbEntity
 67
     1
  8
1
390
0
  6
Continuous
 62
     7
100
AcDbLine
 10
7.227055
 20
1.12682
 30
0.0
 11
7.227055
 21
1.09682
 31
0.0
  0
LINE
  5
57
100
AcDbEntity
 67
     1
  8
1
390
0
  6
Continuous
 62
     7
100
AcDbLine
 10
7.212055
 20
1.082445
 30
0.0
 11
7.242055
 21
1.082445
 31
0.0
  0
LINE
  5
58
100
AcDbEntity
 67
     1
  8
1
390
0
  6
Continuous
 62
     7
100
AcDbLine
 10
8.264055
 20
1.20782
 30
0.0
 11
8.234056
 21
1.20782
 31
0.0
  0
LINE
  5
59
100
AcDbEntity
 67
     1
  8
1
390
0
  6
Continuous
 62
     7
100
AcDbLine
 10
8.249055
 20
1.22282
 30
0.0
 11
8.249055
 21
1.19282
 31
0.0
  0
LINE
  5
5A
100
AcDbEntity
 67
     1
  8
1
390
0
  6
Continuous
 62
     7
100
AcDbLine
 10
8.234056
 20
1.178445
 30
0.0
 11
8.264055
 21
1.178445
 31
0.0
  0
LINE
  5
5B
100
AcDbEntity
 67
     1
  8
1
390
0
  6
Continuous
 62
     7
100
AcDbLine
 10
8.264055
 20
1.11182
 30
0.0
 11
8.234056
 21
1.11182
 31
0.0
  0
LINE
  5
5C
100
AcDbEntity
 67
     1
  8
1
390
0
  6
Continuous
 62
     7
100
AcDbLine
 10
8.249055
 20
1.12682
 30
0.0
 11
8.249055
 21
1.09682
 31
0.0
  0
LINE
  5
5D
100
AcDbEntity
 67
     1
  8
1
390
0
  6
Continuous
 62
     7
100
AcDbLine
 10
8.234056
 20
1.082445
 30
0.0
 11
8.264055
 21
1.082445
 31
0.0
  0
LINE
  5
5E
100
AcDbEntity
 67
     1
  8
1
390
0
  6
Continuous
 62
     7
100
AcDbLine
 10
9.379226
 20
7.448593
 30
0.0
 11
6.659226
 21
7.448593
 31
0.0
  0
LINE
  5
5F
100
AcDbEntity
 67
     1
  8
1
390
0
  6
Continuous
 62
     7
100
AcDbLine
 10
6.659226
 20
7.448593
 30
0.0
 11
6.659226
 21
6.815593
 31
0.0
  0
LINE
  5
60
100
AcDbEntity
 67
     1
  8
1
390
0
  6
Continuous
 62
     7
100
AcDbLine
 10
7.819226
 20
7.448593
 30
0.0
 11
7.819226
 21
6.815593
 31
0.0
  0
LINE
  5
61
100
AcDbEntity
 67
     1
  8
1
390
0
  6
Continuous
 62
     7
100
AcDbLine
 10
9.379226
 20
7.448593
 30
0.0
 11
9.379226
 21
6.815593
 31
0.0
  0
LINE
  5
62
100
AcDbEntity
 67
     1
  8
1
390
0
  6
Continuous
 62
     7
100
AcDbLine
 10
9.379226
 20
7.237593
 30
0.0
 11
6.659226
 21
7.237593
 31
0.0
  0
LINE
  5
63
100
AcDbEntity
 67
     1
  8
1
390
0
  6
Continuous
 62
     7
100
AcDbLine
 10
9.379226
 20
6.815593
 30
0.0
 11
6.659226
 21
6.815593
 31
0.0
  0
LINE
  5
64
100
AcDbEntity
 67
     1
  8
1
390
0
  6
Continuous
 62
     7
100
AcDbLine
 10
0.451015
 20
6.258961
 30
0.0
 11
0.406015
 21
6.258961
 31
0.0
  0
LINE
  5
65
100
AcDbEntity
 67
     1
  8
1
390
0
  6
Continuous
 62
     7
100
AcDbLine
 10
0.406015
 20
6.258961
 30
0.0
 11
0.406015
 21
6.090211
 31
0.0
  0
LINE
  5
66
100
AcDbEntity
 67
     1
  8
1
390
0
  6
Continuous
 62
     7
100
AcDbLine
 10
0.406015
 20
6.090211
 30
0.0
 11
0.451015
 21
6.090211
 31
0.0
  0
LINE
  5
67
100
AcDbEntity
 67
     1
  8
1
390
0
  6
Continuous
 62
     7
100
AcDbLine
 10
0.823015
 20
6.090211
 30
0.0
 11
0.868015
 21
6.090211
 31
0.0
  0
LINE
  5
68
100
AcDbEntity
 67
     1
  8
1
390
0
  6
Continuous
 62
     7
100
AcDbLine
 10
0.868015
 20
6.090211
 30
0.0
 11
0.868015
 21
6.258961
 31
0.0
  0
LINE
  5
69
100
AcDbEntity
 67
     1
  8
1
390
0
  6
Continuous
 62
     7
100
AcDbLine
 10
0.868015
 20
6.258961
 30
0.0
 11
0.823015
 21
6.258961
 31
0.0
  0
LINE
  5
6A
100
AcDbEntity
 67
     1
  8
1
390
0
  6
Continuous
 62
     7
100
AcDbLine
 10
1.450515
 20
6.393961
 30
0.0
 11
1.200515
 21
6.393961
 31
0.0
  0
LINE
  5
6B
100
AcDbEntity
 67
     1
  8
1
390
0
  6
Continuous
 62
     7
100
AcDbLine
 10
1.567634
 20
6.571782
 30
0.0
 11
1.450515
 21
6.393961
 31
0.0
  0
LINE
  5
6C
100
AcDbEntity
 67
     1
  8
1
390
0
  6
Continuous
 62
     7
100
AcDbLine
 10
1.808556
 20
6.93757
 30
0.0
 11
1.932317
 21
7.125475
 31
0.0
  0
LINE
  5
6D
100
AcDbEntity
 67
     1
  8
1
390
0
  6
Continuous
 62
     7
100
AcDbLine
 10
1.009038
 20
6.325221
 30
0.0
 11
1.085574
 21
6.461284
 31
0.0
  0
LINE
  5
6E
100
AcDbEntity
 67
     1
  8
1
390
0
  6
Continuous
 62
     7
100
AcDbLine
 10
1.567634
 20
6.571782
 30
0.0
 11
1.49799
 21
6.509885
 31
0.0
  0
LINE
  5
6F
100
AcDbEntity
 67
     1
  8
1
390
0
  6
Continuous
 62
     7
100
AcDbLine
 10
1.49799
 20
6.509885
 30
0.0
 11
1.53827
 21
6.483356
 31
0.0
  0
LINE
  5
70
100
AcDbEntity
 67
     1
  8
1
390
0
  6
Continuous
 62
     7
100
AcDbLine
 10
1.53827
 20
6.483356
 30
0.0
 11
1.567634
 21
6.571782
 31
0.0
  0
LINE
  5
71
100
AcDbEntity
 67
     1
  8
1
390
0
  6
Continuous
 62
     7
100
AcDbLine
 10
1.498087
 20
6.509821
 30
0.0
 11
1.498324
 21
6.510181
 31
0.0
  0
LINE
  5
72
100
AcDbEntity
 67
     1
  8
1
390
0
  6
Continuous
 62
     7
100
AcDbLine
 10
1.498087
 20
6.509821
 30
0.0
 11
1.498324
 21
6.510181
 31
0.0
  0
LINE
  5
73
100
AcDbEntity
 67
     1
  8
1
390
0
  6
Continuous
 62
     7
100
AcDbLine
 10
1.499757
 20
6.508721
 30
0.0
 11
1.5041
 21
6.515315
 31
0.0
  0
LINE
  5
74
100
AcDbEntity
 67
     1
  8
1
390
0
  6
Continuous
 62
     7
100
AcDbLine
 10
1.501427
 20
6.507621
 30
0.0
 11
1.509876
 21
6.520448
 31
0.0
  0
LINE
  5
75
100
AcDbEntity
 67
     1
  8
1
390
0
  6
Continuous
 62
     7
100
AcDbLine
 10
1.503098
 20
6.506521
 30
0.0
 11
1.515651
 21
6.525581
 31
0.0
  0
LINE
  5
76
100
AcDbEntity
 67
     1
  8
1
390
0
  6
Continuous
 62
     7
100
AcDbLine
 10
1.504768
 20
6.505421
 30
0.0
 11
1.521427
 21
6.530715
 31
0.0
  0
LINE
  5
77
100
AcDbEntity
 67
     1
  8
1
390
0
  6
Continuous
 62
     7
100
AcDbLine
 10
1.506438
 20
6.504321
 30
0.0
 11
1.527203
 21
6.535848
 31
0.0
  0
LINE
  5
78
100
AcDbEntity
 67
     1
  8
1
390
0
  6
Continuous
 62
     7
100
AcDbLine
 10
1.508108
 20
6.503221
 30
0.0
 11
1.532979
 21
6.540982
 31
0.0
  0
LINE
  5
79
100
AcDbEntity
 67
     1
  8
1
390
0
  6
Continuous
 62
     7
100
AcDbLine
 10
1.509779
 20
6.502121
 30
0.0
 11
1.538755
 21
6.546115
 31
0.0
  0
LINE
  5
7A
100
AcDbEntity
 67
     1
  8
1
390
0
  6
Continuous
 62
     7
100
AcDbLine
 10
1.511449
 20
6.50102
 30
0.0
 11
1.544531
 21
6.551249
 31
0.0
  0
LINE
  5
7B
100
AcDbEntity
 67
     1
  8
1
390
0
  6
Continuous
 62
     7
100
AcDbLine
 10
1.513119
 20
6.49992
 30
0.0
 11
1.550307
 21
6.556382
 31
0.0
  0
LINE
  5
7C
100
AcDbEntity
 67
     1
  8
1
390
0
  6
Continuous
 62
     7
100
AcDbLine
 10
1.514789
 20
6.49882
 30
0.0
 11
1.556083
 21
6.561515
 31
0.0
  0
LINE
  5
7D
100
AcDbEntity
 67
     1
  8
1
390
0
  6
Continuous
 62
     7
100
AcDbLine
 10
1.51646
 20
6.49772
 30
0.0
 11
1.561859
 21
6.566649
 31
0.0
  0
LINE
  5
7E
100
AcDbEntity
 67
     1
  8
1
390
0
  6
Continuous
 62
     7
100
AcDbLine
 10
1.51813
 20
6.49662
 30
0.0
 11
1.567634
 21
6.571782
 31
0.0
  0
LINE
  5
7F
100
AcDbEntity
 67
     1
  8
1
390
0
  6
Continuous
 62
     7
100
AcDbLine
 10
1.538173
 20
6.483419
 30
0.0
 11
1.53841
 21
6.483779
 31
0.0
  0
LINE
  5
80
100
AcDbEntity
 67
     1
  8
1
390
0
  6
Continuous
 62
     7
100
AcDbLine
 10
1.538173
 20
6.483419
 30
0.0
 11
1.53841
 21
6.483779
 31
0.0
  0
LINE
  5
81
100
AcDbEntity
 67
     1
  8
1
390
0
  6
Continuous
 62
     7
100
AcDbLine
 10
1.536503
 20
6.484519
 30
0.0
 11
1.540846
 21
6.491112
 31
0.0
  0
LINE
  5
82
100
AcDbEntity
 67
     1
  8
1
390
0
  6
Continuous
 62
     7
100
AcDbLine
 10
1.534833
 20
6.485619
 30
0.0
 11
1.543281
 21
6.498446
 31
0.0
  0
LINE
  5
83
100
AcDbEntity
 67
     1
  8
1
390
0
  6
Continuous
 62
     7
100
AcDbLine
 10
1.533162
 20
6.48672
 30
0.0
 11
1.545716
 21
6.50578
 31
0.0
  0
LINE
  5
84
100
AcDbEntity
 67
     1
  8
1
390
0
  6
Continuous
 62
     7
100
AcDbLine
 10
1.531492
 20
6.48782
 30
0.0
 11
1.548152
 21
6.513113
 31
0.0
  0
LINE
  5
85
100
AcDbEntity
 67
     1
  8
1
390
0
  6
Continuous
 62
     7
100
AcDbLine
 10
1.529822
 20
6.48892
 30
0.0
 11
1.550587
 21
6.520447
 31
0.0
  0
LINE
  5
86
100
AcDbEntity
 67
     1
  8
1
390
0
  6
Continuous
 62
     7
100
AcDbLine
 10
1.528152
 20
6.49002
 30
0.0
 11
1.553022
 21
6.527781
 31
0.0
  0
LINE
  5
87
100
AcDbEntity
 67
     1
  8
1
390
0
  6
Continuous
 62
     7
100
AcDbLine
 10
1.526481
 20
6.49112
 30
0.0
 11
1.555458
 21
6.535114
 31
0.0
  0
LINE
  5
88
100
AcDbEntity
 67
     1
  8
1
390
0
  6
Continuous
 62
     7
100
AcDbLine
 10
1.524811
 20
6.49222
 30
0.0
 11
1.557893
 21
6.542448
 31
0.0
  0
LINE
  5
89
100
AcDbEntity
 67
     1
  8
1
390
0
  6
Continuous
 62
     7
100
AcDbLine
 10
1.523141
 20
6.49332
 30
0.0
 11
1.560328
 21
6.549781
 31
0.0
  0
LINE
  5
8A
100
AcDbEntity
 67
     1
  8
1
390
0
  6
Continuous
 62
     7
100
AcDbLine
 10
1.521471
 20
6.49442
 30
0.0
 11
1.562764
 21
6.557115
 31
0.0
  0
LINE
  5
8B
100
AcDbEntity
 67
     1
  8
1
390
0
  6
Continuous
 62
     7
100
AcDbLine
 10
1.5198
 20
6.49552
 30
0.0
 11
1.565199
 21
6.564448
 31
0.0
  0
LINE
  5
8C
100
AcDbEntity
 67
     1
  8
1
390
0
  6
Continuous
 62
     7
100
AcDbLine
 10
1.51813
 20
6.49662
 30
0.0
 11
1.567634
 21
6.571782
 31
0.0
  0
LINE
  5
8D
100
AcDbEntity
 67
     1
  8
1
390
0
  6
Continuous
 62
     7
100
AcDbLine
 10
1.808556
 20
6.93757
 30
0.0
 11
1.8782
 21
6.999467
 31
0.0
  0
LINE
  5
8E
100
AcDbEntity
 67
     1
  8
1
390
0
  6
Continuous
 62
     7
100
AcDbLine
 10
1.8782
 20
6.999467
 30
0.0
 11
1.837921
 21
7.025997
 31
0.0
  0
LINE
  5
8F
100
AcDbEntity
 67
     1
  8
1
390
0
  6
Continuous
 62
     7
100
AcDbLine
 10
1.837921
 20
7.025997
 30
0.0
 11
1.808556
 21
6.93757
 31
0.0
  0
LINE
  5
90
100
AcDbEntity
 67
     1
  8
1
390
0
  6
Continuous
 62
     7
100
AcDbLine
 10
1.878104
 20
6.999531
 30
0.0
 11
1.877867
 21
6.999171
 31
0.0
  0
LINE
  5
91
100
AcDbEntity
 67
     1
  8
1
390
0
  6
Continuous
 62
     7
100
AcDbLine
 10
1.878104
 20
6.999531
 30
0.0
 11
1.877867
 21
6.999171
 31
0.0
  0
LINE
  5
92
100
AcDbEntity
 67
     1
  8
1
390
0
  6
Continuous
 62
     7
100
AcDbLine
 10
1.876433
 20
7.000631
 30
0.0
 11
1.872091
 21
6.994038
 31
0.0
  0
LINE
  5
93
100
AcDbEntity
 67
     1
  8
1
390
0
  6
Continuous
 62
     7
100
AcDbLine
 10
1.874763
 20
7.001731
 30
0.0
 11
1.866315
 21
6.988904
 31
0.0
  0
LINE
  5
94
100
AcDbEntity
 67
     1
  8
1
390
0
  6
Continuous
 62
     7
100
AcDbLine
 10
1.873093
 20
7.002831
 30
0.0
 11
1.860539
 21
6.983771
 31
0.0
  0
LINE
  5
95
100
AcDbEntity
 67
     1
  8
1
390
0
  6
Continuous
 62
     7
100
AcDbLine
 10
1.871423
 20
7.003931
 30
0.0
 11
1.854763
 21
6.978637
 31
0.0
  0
LINE
  5
96
100
AcDbEntity
 67
     1
  8
1
390
0
  6
Continuous
 62
     7
100
AcDbLine
 10
1.869752
 20
7.005031
 30
0.0
 11
1.848987
 21
6.973504
 31
0.0
  0
LINE
  5
97
100
AcDbEntity
 67
     1
  8
1
390
0
  6
Continuous
 62
     7
100
AcDbLine
 10
1.868082
 20
7.006131
 30
0.0
 11
1.843211
 21
6.96837
 31
0.0
  0
LINE
  5
98
100
AcDbEntity
 67
     1
  8
1
390
0
  6
Continuous
 62
     7
100
AcDbLine
 10
1.866412
 20
7.007231
 30
0.0
 11
1.837435
 21
6.963237
 31
0.0
  0
LINE
  5
99
100
AcDbEntity
 67
     1
  8
1
390
0
  6
Continuous
 62
     7
100
AcDbLine
 10
1.864742
 20
7.008332
 30
0.0
 11
1.83166
 21
6.958104
 31
0.0
  0
LINE
  5
9A
100
AcDbEntity
 67
     1
  8
1
390
0
  6
Continuous
 62
     7
100
AcDbLine
 10
1.863071
 20
7.009432
 30
0.0
 11
1.825884
 21
6.952971
 31
0.0
  0
LINE
  5
9B
100
AcDbEntity
 67
     1
  8
1
390
0
  6
Continuous
 62
     7
100
AcDbLine
 10
1.861401
 20
7.010532
 30
0.0
 11
1.820108
 21
6.947837
 31
0.0
  0
LINE
  5
9C
100
AcDbEntity
 67
     1
  8
1
390
0
  6
Continuous
 62
     7
100
AcDbLine
 10
1.859731
 20
7.011632
 30
0.0
 11
1.814332
 21
6.942703
 31
0.0
  0
LINE
  5
9D
100
AcDbEntity
 67
     1
  8
1
390
0
  6
Continuous
 62
     7
100
AcDbLine
 10
1.85806
 20
7.012732
 30
0.0
 11
1.808556
 21
6.93757
 31
0.0
  0
LINE
  5
9E
100
AcDbEntity
 67
     1
  8
1
390
0
  6
Continuous
 62
     7
100
AcDbLine
 10
1.838017
 20
7.025933
 30
0.0
 11
1.83778
 21
7.025573
 31
0.0
  0
LINE
  5
9F
100
AcDbEntity
 67
     1
  8
1
390
0
  6
Continuous
 62
     7
100
AcDbLine
 10
1.838017
 20
7.025933
 30
0.0
 11
1.83778
 21
7.025573
 31
0.0
  0
LINE
  5
A0
100
AcDbEntity
 67
     1
  8
1
390
0
  6
Continuous
 62
     7
100
AcDbLine
 10
1.839688
 20
7.024833
 30
0.0
 11
1.835345
 21
7.01824
 31
0.0
  0
LINE
  5
A1
100
AcDbEntity
 67
     1
  8
1
390
0
  6
Continuous
 62
     7
100
AcDbLine
 10
1.841358
 20
7.023733
 30
0.0
 11
1.83291
 21
7.010906
 31
0.0
  0
LINE
  5
A2
100
AcDbEntity
 67
     1
  8
1
390
0
  6
Continuous
 62
     7
100
AcDbLine
 10
1.843028
 20
7.022633
 30
0.0
 11
1.830474
 21
7.003572
 31
0.0
  0
LINE
  5
A3
100
AcDbEntity
 67
     1
  8
1
390
0
  6
Continuous
 62
     7
100
AcDbLine
 10
1.844698
 20
7.021533
 30
0.0
 11
1.828039
 21
6.996239
 31
0.0
  0
LINE
  5
A4
100
AcDbEntity
 67
     1
  8
1
390
0
  6
Continuous
 62
     7
100
AcDbLine
 10
1.846369
 20
7.020432
 30
0.0
 11
1.825604
 21
6.988905
 31
0.0
  0
LINE
  5
A5
100
AcDbEntity
 67
     1
  8
1
390
0
  6
Continuous
 62
     7
100
AcDbLine
 10
1.848039
 20
7.019332
 30
0.0
 11
1.823168
 21
6.981572
 31
0.0
  0
LINE
  5
A6
100
AcDbEntity
 67
     1
  8
1
390
0
  6
Continuous
 62
     7
100
AcDbLine
 10
1.849709
 20
7.018232
 30
0.0
 11
1.820733
 21
6.974238
 31
0.0
  0
LINE
  5
A7
100
AcDbEntity
 67
     1
  8
1
390
0
  6
Continuous
 62
     7
100
AcDbLine
 10
1.851379
 20
7.017132
 30
0.0
 11
1.818298
 21
6.966905
 31
0.0
  0
LINE
  5
A8
100
AcDbEntity
 67
     1
  8
1
390
0
  6
Continuous
 62
     7
100
AcDbLine
 10
1.85305
 20
7.016032
 30
0.0
 11
1.815862
 21
6.959571
 31
0.0
  0
LINE
  5
A9
100
AcDbEntity
 67
     1
  8
1
390
0
  6
Continuous
 62
     7
100
AcDbLine
 10
1.85472
 20
7.014932
 30
0.0
 11
1.813427
 21
6.952237
 31
0.0
  0
LINE
  5
AA
100
AcDbEntity
 67
     1
  8
1
390
0
  6
Continuous
 62
     7
100
AcDbLine
 10
1.85639
 20
7.013832
 30
0.0
 11
1.810991
 21
6.944904
 31
0.0
  0
LINE
  5
AB
100
AcDbEntity
 67
     1
  8
1
390
0
  6
Continuous
 62
     7
100
AcDbLine
 10
1.85806
 20
7.012732
 30
0.0
 11
1.808556
 21
6.93757
 31
0.0
  0
LINE
  5
AC
100
AcDbEntity
 67
     1
  8
1
390
0
  6
Continuous
 62
     7
100
AcDbLine
 10
4.466369
 20
6.754676
 30
0.0
 11
3.383184
 21
6.754676
 31
0.0
  0
LINE
  5
AD
100
AcDbEntity
 67
     1
  8
1
390
0
  6
Continuous
 62
     7
100
AcDbLine
 10
3.320684
 20
6.754676
 30
0.0
 11
3.195684
 21
6.754676
 31
0.0
  0
LINE
  5
AE
100
AcDbEntity
 67
     1
  8
1
390
0
  6
Continuous
 62
     7
100
AcDbLine
 10
3.133184
 20
6.754676
 30
0.0
 11
2.05
 21
6.754676
 31
0.0
  0
LINE
  5
AF
100
AcDbEntity
 67
     1
  8
1
390
0
  6
Continuous
 62
     7
100
AcDbLine
 10
4.466369
 20
6.754676
 30
0.0
 11
4.591369
 21
6.754676
 31
0.0
  0
LINE
  5
B0
100
AcDbEntity
 67
     1
  8
1
390
0
  6
Continuous
 62
     7
100
AcDbLine
 10
2.05
 20
6.754676
 30
0.0
 11
1.925
 21
6.754676
 31
0.0
  0
LINE
  5
B1
100
AcDbEntity
 67
     1
  8
1
390
0
  6
Continuous
 62
     7
100
AcDbLine
 10
4.653869
 20
6.754676
 30
0.0
 11
4.716369
 21
6.754676
 31
0.0
  0
LINE
  5
B2
100
AcDbEntity
 67
     1
  8
1
390
0
  6
Continuous
 62
     7
100
AcDbLine
 10
1.8625
 20
6.754676
 30
0.0
 11
1.8
 21
6.754676
 31
0.0
  0
LINE
  5
B3
100
AcDbEntity
 67
     1
  8
1
390
0
  6
Continuous
 62
     7
100
AcDbLine
 10
1.688095
 20
6.692176
 30
0.0
 11
1.688095
 21
6.817176
 31
0.0
  0
LINE
  5
B4
100
AcDbEntity
 67
     1
  8
1
390
0
  6
Continuous
 62
     7
100
AcDbLine
 10
1.688095
 20
6.629676
 30
0.0
 11
1.688095
 21
6.285676
 31
0.0
  0
LINE
  5
B5
100
AcDbEntity
 67
     1
  8
1
390
0
  6
Continuous
 62
     7
100
AcDbLine
 10
1.688095
 20
6.879676
 30
0.0
 11
1.688095
 21
7.223676
 31
0.0
  0
LINE
  5
B6
100
AcDbEntity
 67
     1
  8
1
390
0
  6
Continuous
 62
     7
100
AcDbLine
 10
1.563095
 20
6.754676
 30
0.0
 11
1.219095
 21
6.754676
 31
0.0
  0
LINE
  5
B7
100
AcDbEntity
 67
     1
  8
1
390
0
  6
Continuous
 62
     7
100
AcDbLine
 10
1.625595
 20
6.754676
 30
0.0
 11
1.750595
 21
6.754676
 31
0.0
  0
LINE
  5
B8
100
AcDbEntity
 67
     1
  8
1
390
0
  6
Continuous
 62
     7
100
AcDbLine
 10
1.813095
 20
6.754676
 30
0.0
 11
2.157095
 21
6.754676
 31
0.0
  0
LINE
  5
B9
100
AcDbEntity
 67
     1
  8
1
390
0
  6
Continuous
 62
     7
100
AcDbLine
 10
3.295055
 20
6.070389
 30
0.0
 11
3.250055
 21
6.070389
 31
0.0
  0
LINE
  5
BA
100
AcDbEntity
 67
     1
  8
1
390
0
  6
Continuous
 62
     7
100
AcDbLine
 10
3.250055
 20
6.070389
 30
0.0
 11
3.250055
 21
5.901639
 31
0.0
  0
LINE
  5
BB
100
AcDbEntity
 67
     1
  8
1
390
0
  6
Continuous
 62
     7
100
AcDbLine
 10
3.250055
 20
5.901639
 30
0.0
 11
3.295055
 21
5.901639
 31
0.0
  0
LINE
  5
BC
100
AcDbEntity
 67
     1
  8
1
390
0
  6
Continuous
 62
     7
100
AcDbLine
 10
3.568993
 20
5.901639
 30
0.0
 11
3.613992
 21
5.901639
 31
0.0
  0
LINE
  5
BD
100
AcDbEntity
 67
     1
  8
1
390
0
  6
Continuous
 62
     7
100
AcDbLine
 10
3.613992
 20
5.901639
 30
0.0
 11
3.613992
 21
6.070389
 31
0.0
  0
LINE
  5
BE
100
AcDbEntity
 67
     1
  8
1
390
0
  6
Continuous
 62
     7
100
AcDbLine
 10
3.613992
 20
6.070389
 30
0.0
 11
3.568993
 21
6.070389
 31
0.0
  0
LINE
  5
BF
100
AcDbEntity
 67
     1
  8
1
390
0
  6
Continuous
 62
     7
100
AcDbLine
 10
4.026149
 20
6.630676
 30
0.0
 11
4.026149
 21
6.115389
 31
0.0
  0
LINE
  5
C0
100
AcDbEntity
 67
     1
  8
1
390
0
  6
Continuous
 62
     7
100
AcDbLine
 10
4.098149
 20
6.473176
 30
0.0
 11
4.098149
 21
6.115389
 31
0.0
  0
LINE
  5
C1
100
AcDbEntity
 67
     1
  8
1
390
0
  6
Continuous
 62
     7
100
AcDbLine
 10
3.936149
 20
6.205389
 30
0.0
 11
3.686149
 21
6.205389
 31
0.0
  0
LINE
  5
C2
100
AcDbEntity
 67
     1
  8
1
390
0
  6
Continuous
 62
     7
100
AcDbLine
 10
4.026149
 20
6.205389
 30
0.0
 11
3.936149
 21
6.205389
 31
0.0
  0
LINE
  5
C3
100
AcDbEntity
 67
     1
  8
1
390
0
  6
Continuous
 62
     7
100
AcDbLine
 10
4.098149
 20
6.205389
 30
0.0
 11
4.323149
 21
6.205389
 31
0.0
  0
LINE
  5
C4
100
AcDbEntity
 67
     1
  8
1
390
0
  6
Continuous
 62
     7
100
AcDbLine
 10
4.026149
 20
6.205389
 30
0.0
 11
3.936149
 21
6.229505
 31
0.0
  0
LINE
  5
C5
100
AcDbEntity
 67
     1
  8
1
390
0
  6
Continuous
 62
     7
100
AcDbLine
 10
3.936149
 20
6.229505
 30
0.0
 11
3.936149
 21
6.181273
 31
0.0
  0
LINE
  5
C6
100
AcDbEntity
 67
     1
  8
1
390
0
  6
Continuous
 62
     7
100
AcDbLine
 10
3.936149
 20
6.181273
 30
0.0
 11
4.026149
 21
6.205389
 31
0.0
  0
LINE
  5
C7
100
AcDbEntity
 67
     1
  8
1
390
0
  6
Continuous
 62
     7
100
AcDbLine
 10
3.936149
 20
6.229389
 30
0.0
 11
3.936579
 21
6.229389
 31
0.0
  0
LINE
  5
C8
100
AcDbEntity
 67
     1
  8
1
390
0
  6
Continuous
 62
     7
100
AcDbLine
 10
3.936149
 20
6.229389
 30
0.0
 11
3.936579
 21
6.229389
 31
0.0
  0
LINE
  5
C9
100
AcDbEntity
 67
     1
  8
1
390
0
  6
Continuous
 62
     7
100
AcDbLine
 10
3.936149
 20
6.227389
 30
0.0
 11
3.944044
 21
6.227389
 31
0.0
  0
LINE
  5
CA
100
AcDbEntity
 67
     1
  8
1
390
0
  6
Continuous
 62
     7
100
AcDbLine
 10
3.936149
 20
6.225389
 30
0.0
 11
3.951508
 21
6.225389
 31
0.0
  0
LINE
  5
CB
100
AcDbEntity
 67
     1
  8
1
390
0
  6
Continuous
 62
     7
100
AcDbLine
 10
3.936149
 20
6.223389
 30
0.0
 11
3.958972
 21
6.223389
 31
0.0
  0
LINE
  5
CC
100
AcDbEntity
 67
     1
  8
1
390
0
  6
Continuous
 62
     7
100
AcDbLine
 10
3.936149
 20
6.221389
 30
0.0
 11
3.966436
 21
6.221389
 31
0.0
  0
LINE
  5
CD
100
AcDbEntity
 67
     1
  8
1
390
0
  6
Continuous
 62
     7
100
AcDbLine
 10
3.936149
 20
6.219389
 30
0.0
 11
3.9739
 21
6.219389
 31
0.0
  0
LINE
  5
CE
100
AcDbEntity
 67
     1
  8
1
390
0
  6
Continuous
 62
     7
100
AcDbLine
 10
3.936149
 20
6.217389
 30
0.0
 11
3.981364
 21
6.217389
 31
0.0
  0
LINE
  5
CF
100
AcDbEntity
 67
     1
  8
1
390
0
  6
Continuous
 62
     7
100
AcDbLine
 10
3.936149
 20
6.215389
 30
0.0
 11
3.988828
 21
6.215389
 31
0.0
  0
LINE
  5
D0
100
AcDbEntity
 67
     1
  8
1
390
0
  6
Continuous
 62
     7
100
AcDbLine
 10
3.936149
 20
6.213389
 30
0.0
 11
3.996292
 21
6.213389
 31
0.0
  0
LINE
  5
D1
100
AcDbEntity
 67
     1
  8
1
390
0
  6
Continuous
 62
     7
100
AcDbLine
 10
3.936149
 20
6.211389
 30
0.0
 11
4.003757
 21
6.211389
 31
0.0
  0
LINE
  5
D2
100
AcDbEntity
 67
     1
  8
1
390
0
  6
Continuous
 62
     7
100
AcDbLine
 10
3.936149
 20
6.209389
 30
0.0
 11
4.01122
 21
6.209389
 31
0.0
  0
LINE
  5
D3
100
AcDbEntity
 67
     1
  8
1
390
0
  6
Continuous
 62
     7
100
AcDbLine
 10
3.936149
 20
6.207389
 30
0.0
 11
4.018685
 21
6.207389
 31
0.0
  0
LINE
  5
D4
100
AcDbEntity
 67
     1
  8
1
390
0
  6
Continuous
 62
     7
100
AcDbLine
 10
3.936149
 20
6.205389
 30
0.0
 11
4.026149
 21
6.205389
 31
0.0
  0
LINE
  5
D5
100
AcDbEntity
 67
     1
  8
1
390
0
  6
Continuous
 62
     7
100
AcDbLine
 10
3.936149
 20
6.181389
 30
0.0
 11
3.936579
 21
6.181389
 31
0.0
  0
LINE
  5
D6
100
AcDbEntity
 67
     1
  8
1
390
0
  6
Continuous
 62
     7
100
AcDbLine
 10
3.936149
 20
6.181389
 30
0.0
 11
3.936579
 21
6.181389
 31
0.0
  0
LINE
  5
D7
100
AcDbEntity
 67
     1
  8
1
390
0
  6
Continuous
 62
     7
100
AcDbLine
 10
3.936149
 20
6.183389
 30
0.0
 11
3.944044
 21
6.183389
 31
0.0
  0
LINE
  5
D8
100
AcDbEntity
 67
     1
  8
1
390
0
  6
Continuous
 62
     7
100
AcDbLine
 10
3.936149
 20
6.185389
 30
0.0
 11
3.951508
 21
6.185389
 31
0.0
  0
LINE
  5
D9
100
AcDbEntity
 67
     1
  8
1
390
0
  6
Continuous
 62
     7
100
AcDbLine
 10
3.936149
 20
6.187389
 30
0.0
 11
3.958972
 21
6.187389
 31
0.0
  0
LINE
  5
DA
100
AcDbEntity
 67
     1
  8
1
390
0
  6
Continuous
 62
     7
100
AcDbLine
 10
3.936149
 20
6.189389
 30
0.0
 11
3.966436
 21
6.189389
 31
0.0
  0
LINE
  5
DB
100
AcDbEntity
 67
     1
  8
1
390
0
  6
Continuous
 62
     7
100
AcDbLine
 10
3.936149
 20
6.191389
 30
0.0
 11
3.9739
 21
6.191389
 31
0.0
  0
LINE
  5
DC
100
AcDbEntity
 67
     1
  8
1
390
0
  6
Continuous
 62
     7
100
AcDbLine
 10
3.936149
 20
6.193389
 30
0.0
 11
3.981364
 21
6.193389
 31
0.0
  0
LINE
  5
DD
100
AcDbEntity
 67
     1
  8
1
390
0
  6
Continuous
 62
     7
100
AcDbLine
 10
3.936149
 20
6.195389
 30
0.0
 11
3.988828
 21
6.195389
 31
0.0
  0
LINE
  5
DE
100
AcDbEntity
 67
     1
  8
1
390
0
  6
Continuous
 62
     7
100
AcDbLine
 10
3.936149
 20
6.197389
 30
0.0
 11
3.996292
 21
6.197389
 31
0.0
  0
LINE
  5
DF
100
AcDbEntity
 67
     1
  8
1
390
0
  6
Continuous
 62
     7
100
AcDbLine
 10
3.936149
 20
6.199389
 30
0.0
 11
4.003757
 21
6.199389
 31
0.0
  0
LINE
  5
E0
100
AcDbEntity
 67
     1
  8
1
390
0
  6
Continuous
 62
     7
100
AcDbLine
 10
3.936149
 20
6.201389
 30
0.0
 11
4.01122
 21
6.201389
 31
0.0
  0
LINE
  5
E1
100
AcDbEntity
 67
     1
  8
1
390
0
  6
Continuous
 62
     7
100
AcDbLine
 10
3.936149
 20
6.203389
 30
0.0
 11
4.018685
 21
6.203389
 31
0.0
  0
LINE
  5
E2
100
AcDbEntity
 67
     1
  8
1
390
0
  6
Continuous
 62
     7
100
AcDbLine
 10
3.936149
 20
6.205389
 30
0.0
 11
4.026149
 21
6.205389
 31
0.0
  0
LINE
  5
E3
100
AcDbEntity
 67
     1
  8
1
390
0
  6
Continuous
 62
     7
100
AcDbLine
 10
4.098149
 20
6.205389
 30
0.0
 11
4.188149
 21
6.181273
 31
0.0
  0
LINE
  5
E4
100
AcDbEntity
 67
     1
  8
1
390
0
  6
Continuous
 62
     7
100
AcDbLine
 10
4.188149
 20
6.181273
 30
0.0
 11
4.188149
 21
6.229505
 31
0.0
  0
LINE
  5
E5
100
AcDbEntity
 67
     1
  8
1
390
0
  6
Continuous
 62
     7
100
AcDbLine
 10
4.188149
 20
6.229505
 30
0.0
 11
4.098149
 21
6.205389
 31
0.0
  0
LINE
  5
E6
100
AcDbEntity
 67
     1
  8
1
390
0
  6
Continuous
 62
     7
100
AcDbLine
 10
4.188149
 20
6.181389
 30
0.0
 11
4.187718
 21
6.181389
 31
0.0
  0
LINE
  5
E7
100
AcDbEntity
 67
     1
  8
1
390
0
  6
Continuous
 62
     7
100
AcDbLine
 10
4.188149
 20
6.181389
 30
0.0
 11
4.187718
 21
6.181389
 31
0.0
  0
LINE
  5
E8
100
AcDbEntity
 67
     1
  8
1
390
0
  6
Continuous
 62
     7
100
AcDbLine
 10
4.188149
 20
6.183389
 30
0.0
 11
4.180254
 21
6.183389
 31
0.0
  0
LINE
  5
E9
100
AcDbEntity
 67
     1
  8
1
390
0
  6
Continuous
 62
     7
100
AcDbLine
 10
4.188149
 20
6.185389
 30
0.0
 11
4.17279
 21
6.185389
 31
0.0
  0
LINE
  5
EA
100
AcDbEntity
 67
     1
  8
1
390
0
  6
Continuous
 62
     7
100
AcDbLine
 10
4.188149
 20
6.187389
 30
0.0
 11
4.165326
 21
6.187389
 31
0.0
  0
LINE
  5
EB
100
AcDbEntity
 67
     1
  8
1
390
0
  6
Continuous
 62
     7
100
AcDbLine
 10
4.188149
 20
6.189389
 30
0.0
 11
4.157862
 21
6.189389
 31
0.0
  0
LINE
  5
EC
100
AcDbEntity
 67
     1
  8
1
390
0
  6
Continuous
 62
     7
100
AcDbLine
 10
4.188149
 20
6.191389
 30
0.0
 11
4.150397
 21
6.191389
 31
0.0
  0
LINE
  5
ED
100
AcDbEntity
 67
     1
  8
1
390
0
  6
Continuous
 62
     7
100
AcDbLine
 10
4.188149
 20
6.193389
 30
0.0
 11
4.142933
 21
6.193389
 31
0.0
  0
LINE
  5
EE
100
AcDbEntity
 67
     1
  8
1
390
0
  6
Continuous
 62
     7
100
AcDbLine
 10
4.188149
 20
6.195389
 30
0.0
 11
4.135469
 21
6.195389
 31
0.0
  0
LINE
  5
EF
100
AcDbEntity
 67
     1
  8
1
390
0
  6
Continuous
 62
     7
100
AcDbLine
 10
4.188149
 20
6.197389
 30
0.0
 11
4.128005
 21
6.197389
 31
0.0
  0
LINE
  5
F0
100
AcDbEntity
 67
     1
  8
1
390
0
  6
Continuous
 62
     7
100
AcDbLine
 10
4.188149
 20
6.199389
 30
0.0
 11
4.120541
 21
6.199389
 31
0.0
  0
LINE
  5
F1
100
AcDbEntity
 67
     1
  8
1
390
0
  6
Continuous
 62
     7
100
AcDbLine
 10
4.188149
 20
6.201389
 30
0.0
 11
4.113077
 21
6.201389
 31
0.0
  0
LINE
  5
F2
100
AcDbEntity
 67
     1
  8
1
390
0
  6
Continuous
 62
     7
100
AcDbLine
 10
4.188149
 20
6.203389
 30
0.0
 11
4.105613
 21
6.203389
 31
0.0
  0
LINE
  5
F3
100
AcDbEntity
 67
     1
  8
1
390
0
  6
Continuous
 62
     7
100
AcDbLine
 10
4.188149
 20
6.205389
 30
0.0
 11
4.098149
 21
6.205389
 31
0.0
  0
LINE
  5
F4
100
AcDbEntity
 67
     1
  8
1
390
0
  6
Continuous
 62
     7
100
AcDbLine
 10
4.188149
 20
6.229389
 30
0.0
 11
4.187718
 21
6.229389
 31
0.0
  0
LINE
  5
F5
100
AcDbEntity
 67
     1
  8
1
390
0
  6
Continuous
 62
     7
100
AcDbLine
 10
4.188149
 20
6.229389
 30
0.0
 11
4.187718
 21
6.229389
 31
0.0
  0
LINE
  5
F6
100
AcDbEntity
 67
     1
  8
1
390
0
  6
Continuous
 62
     7
100
AcDbLine
 10
4.188149
 20
6.227389
 30
0.0
 11
4.180254
 21
6.227389
 31
0.0
  0
LINE
  5
F7
100
AcDbEntity
 67
     1
  8
1
390
0
  6
Continuous
 62
     7
100
AcDbLine
 10
4.188149
 20
6.225389
 30
0.0
 11
4.17279
 21
6.225389
 31
0.0
  0
LINE
  5
F8
100
AcDbEntity
 67
     1
  8
1
390
0
  6
Continuous
 62
     7
100
AcDbLine
 10
4.188149
 20
6.223389
 30
0.0
 11
4.165326
 21
6.223389
 31
0.0
  0
LINE
  5
F9
100
AcDbEntity
 67
     1
  8
1
390
0
  6
Continuous
 62
     7
100
AcDbLine
 10
4.188149
 20
6.221389
 30
0.0
 11
4.157862
 21
6.221389
 31
0.0
  0
LINE
  5
FA
100
AcDbEntity
 67
     1
  8
1
390
0
  6
Continuous
 62
     7
100
AcDbLine
 10
4.188149
 20
6.219389
 30
0.0
 11
4.150397
 21
6.219389
 31
0.0
  0
LINE
  5
FB
100
AcDbEntity
 67
     1
  8
1
390
0
  6
Continuous
 62
     7
100
AcDbLine
 10
4.188149
 20
6.217389
 30
0.0
 11
4.142933
 21
6.217389
 31
0.0
  0
LINE
  5
FC
100
AcDbEntity
 67
     1
  8
1
390
0
  6
Continuous
 62
     7
100
AcDbLine
 10
4.188149
 20
6.215389
 30
0.0
 11
4.135469
 21
6.215389
 31
0.0
  0
LINE
  5
FD
100
AcDbEntity
 67
     1
  8
1
390
0
  6
Continuous
 62
     7
100
AcDbLine
 10
4.188149
 20
6.213389
 30
0.0
 11
4.128005
 21
6.213389
 31
0.0
  0
LINE
  5
FE
100
AcDbEntity
 67
     1
  8
1
390
0
  6
Continuous
 62
     7
100
AcDbLine
 10
4.188149
 20
6.211389
 30
0.0
 11
4.120541
 21
6.211389
 31
0.0
  0
LINE
  5
FF
100
AcDbEntity
 67
     1
  8
1
390
0
  6
Continuous
 62
     7
100
AcDbLine
 10
4.188149
 20
6.209389
 30
0.0
 11
4.113077
 21
6.209389
 31
0.0
  0
LINE
  5
100
100
AcDbEntity
 67
     1
  8
1
390
0
  6
Continuous
 62
     7
100
AcDbLine
 10
4.188149
 20
6.207389
 30
0.0
 11
4.105613
 21
6.207389
 31
0.0
  0
LINE
  5
101
100
AcDbEntity
 67
     1
  8
1
390
0
  6
Continuous
 62
     7
100
AcDbLine
 10
4.188149
 20
6.205389
 30
0.0
 11
4.098149
 21
6.205389
 31
0.0
  0
LINE
  5
102
100
AcDbEntity
 67
     1
  8
1
390
0
  6
Continuous
 62
     7
100
AcDbLine
 10
4.925295
 20
6.07179
 30
0.0
 11
4.880295
 21
6.07179
 31
0.0
  0
LINE
  5
103
100
AcDbEntity
 67
     1
  8
1
390
0
  6
Continuous
 62
     7
100
AcDbLine
 10
4.880295
 20
6.07179
 30
0.0
 11
4.880295
 21
5.90304
 31
0.0
  0
LINE
  5
104
100
AcDbEntity
 67
     1
  8
1
390
0
  6
Continuous
 62
     7
100
AcDbLine
 10
4.880295
 20
5.90304
 30
0.0
 11
4.925295
 21
5.90304
 31
0.0
  0
LINE
  5
105
100
AcDbEntity
 67
     1
  8
1
390
0
  6
Continuous
 62
     7
100
AcDbLine
 10
5.199233
 20
5.90304
 30
0.0
 11
5.244233
 21
5.90304
 31
0.0
  0
LINE
  5
106
100
AcDbEntity
 67
     1
  8
1
390
0
  6
Continuous
 62
     7
100
AcDbLine
 10
5.244233
 20
5.90304
 30
0.0
 11
5.244233
 21
6.07179
 31
0.0
  0
LINE
  5
107
100
AcDbEntity
 67
     1
  8
1
390
0
  6
Continuous
 62
     7
100
AcDbLine
 10
5.244233
 20
6.07179
 30
0.0
 11
5.199233
 21
6.07179
 31
0.0
  0
LINE
  5
108
100
AcDbEntity
 67
     1
  8
1
390
0
  6
Continuous
 62
     7
100
AcDbLine
 10
4.098149
 20
6.473176
 30
0.0
 11
4.098149
 21
6.11679
 31
0.0
  0
LINE
  5
109
100
AcDbEntity
 67
     1
  8
1
390
0
  6
Continuous
 62
     7
100
AcDbLine
 10
4.468139
 20
6.637956
 30
0.0
 11
4.468139
 21
6.11679
 31
0.0
  0
LINE
  5
10A
100
AcDbEntity
 67
     1
  8
1
390
0
  6
Continuous
 62
     7
100
AcDbLine
 10
4.558139
 20
6.20679
 30
0.0
 11
4.808139
 21
6.20679
 31
0.0
  0
LINE
  5
10B
100
AcDbEntity
 67
     1
  8
1
390
0
  6
Continuous
 62
     7
100
AcDbLine
 10
4.098149
 20
6.20679
 30
0.0
 11
4.558139
 21
6.20679
 31
0.0
  0
LINE
  5
10C
100
AcDbEntity
 67
     1
  8
1
390
0
  6
Continuous
 62
     7
100
AcDbLine
 10
4.098149
 20
6.20679
 30
0.0
 11
4.188149
 21
6.182674
 31
0.0
  0
LINE
  5
10D
100
AcDbEntity
 67
     1
  8
1
390
0
  6
Continuous
 62
     7
100
AcDbLine
 10
4.188149
 20
6.182674
 30
0.0
 11
4.188149
 21
6.230906
 31
0.0
  0
LINE
  5
10E
100
AcDbEntity
 67
     1
  8
1
390
0
  6
Continuous
 62
     7
100
AcDbLine
 10
4.188149
 20
6.230906
 30
0.0
 11
4.098149
 21
6.20679
 31
0.0
  0
LINE
  5
10F
100
AcDbEntity
 67
     1
  8
1
390
0
  6
Continuous
 62
     7
100
AcDbLine
 10
4.188149
 20
6.18279
 30
0.0
 11
4.187718
 21
6.18279
 31
0.0
  0
LINE
  5
110
100
AcDbEntity
 67
     1
  8
1
390
0
  6
Continuous
 62
     7
100
AcDbLine
 10
4.188149
 20
6.18279
 30
0.0
 11
4.187718
 21
6.18279
 31
0.0
  0
LINE
  5
111
100
AcDbEntity
 67
     1
  8
1
390
0
  6
Continuous
 62
     7
100
AcDbLine
 10
4.188149
 20
6.18479
 30
0.0
 11
4.180254
 21
6.18479
 31
0.0
  0
LINE
  5
112
100
AcDbEntity
 67
     1
  8
1
390
0
  6
Continuous
 62
     7
100
AcDbLine
 10
4.188149
 20
6.18679
 30
0.0
 11
4.17279
 21
6.18679
 31
0.0
  0
LINE
  5
113
100
AcDbEntity
 67
     1
  8
1
390
0
  6
Continuous
 62
     7
100
AcDbLine
 10
4.188149
 20
6.18879
 30
0.0
 11
4.165326
 21
6.18879
 31
0.0
  0
LINE
  5
114
100
AcDbEntity
 67
     1
  8
1
390
0
  6
Continuous
 62
     7
100
AcDbLine
 10
4.188149
 20
6.19079
 30
0.0
 11
4.157862
 21
6.19079
 31
0.0
  0
LINE
  5
115
100
AcDbEntity
 67
     1
  8
1
390
0
  6
Continuous
 62
     7
100
AcDbLine
 10
4.188149
 20
6.19279
 30
0.0
 11
4.150397
 21
6.19279
 31
0.0
  0
LINE
  5
116
100
AcDbEntity
 67
     1
  8
1
390
0
  6
Continuous
 62
     7
100
AcDbLine
 10
4.188149
 20
6.19479
 30
0.0
 11
4.142933
 21
6.19479
 31
0.0
  0
LINE
  5
117
100
AcDbEntity
 67
     1
  8
1
390
0
  6
Continuous
 62
     7
100
AcDbLine
 10
4.188149
 20
6.19679
 30
0.0
 11
4.135469
 21
6.19679
 31
0.0
  0
LINE
  5
118
100
AcDbEntity
 67
     1
  8
1
390
0
  6
Continuous
 62
     7
100
AcDbLine
 10
4.188149
 20
6.19879
 30
0.0
 11
4.128005
 21
6.19879
 31
0.0
  0
LINE
  5
119
100
AcDbEntity
 67
     1
  8
1
390
0
  6
Continuous
 62
     7
100
AcDbLine
 10
4.188149
 20
6.20079
 30
0.0
 11
4.120541
 21
6.20079
 31
0.0
  0
LINE
  5
11A
100
AcDbEntity
 67
     1
  8
1
390
0
  6
Continuous
 62
     7
100
AcDbLine
 10
4.188149
 20
6.20279
 30
0.0
 11
4.113077
 21
6.20279
 31
0.0
  0
LINE
  5
11B
100
AcDbEntity
 67
     1
  8
1
390
0
  6
Continuous
 62
     7
100
AcDbLine
 10
4.188149
 20
6.20479
 30
0.0
 11
4.105613
 21
6.20479
 31
0.0
  0
LINE
  5
11C
100
AcDbEntity
 67
     1
  8
1
390
0
  6
Continuous
 62
     7
100
AcDbLine
 10
4.188149
 20
6.20679
 30
0.0
 11
4.098149
 21
6.20679
 31
0.0
  0
LINE
  5
11D
100
AcDbEntity
 67
     1
  8
1
390
0
  6
Continuous
 62
     7
100
AcDbLine
 10
4.188149
 20
6.23079
 30
0.0
 11
4.187718
 21
6.23079
 31
0.0
  0
LINE
  5
11E
100
AcDbEntity
 67
     1
  8
1
390
0
  6
Continuous
 62
     7
100
AcDbLine
 10
4.188149
 20
6.23079
 30
0.0
 11
4.187718
 21
6.23079
 31
0.0
  0
LINE
  5
11F
100
AcDbEntity
 67
     1
  8
1
390
0
  6
Continuous
 62
     7
100
AcDbLine
 10
4.188149
 20
6.22879
 30
0.0
 11
4.180254
 21
6.22879
 31
0.0
  0
LINE
  5
120
100
AcDbEntity
 67
     1
  8
1
390
0
  6
Continuous
 62
     7
100
AcDbLine
 10
4.188149
 20
6.22679
 30
0.0
 11
4.17279
 21
6.22679
 31
0.0
  0
LINE
  5
121
100
AcDbEntity
 67
     1
  8
1
390
0
  6
Continuous
 62
     7
100
AcDbLine
 10
4.188149
 20
6.22479
 30
0.0
 11
4.165326
 21
6.22479
 31
0.0
  0
LINE
  5
122
100
AcDbEntity
 67
     1
  8
1
390
0
  6
Continuous
 62
     7
100
AcDbLine
 10
4.188149
 20
6.22279
 30
0.0
 11
4.157862
 21
6.22279
 31
0.0
  0
LINE
  5
123
100
AcDbEntity
 67
     1
  8
1
390
0
  6
Continuous
 62
     7
100
AcDbLine
 10
4.188149
 20
6.22079
 30
0.0
 11
4.150397
 21
6.22079
 31
0.0
  0
LINE
  5
124
100
AcDbEntity
 67
     1
  8
1
390
0
  6
Continuous
 62
     7
100
AcDbLine
 10
4.188149
 20
6.21879
 30
0.0
 11
4.142933
 21
6.21879
 31
0.0
  0
LINE
  5
125
100
AcDbEntity
 67
     1
  8
1
390
0
  6
Continuous
 62
     7
100
AcDbLine
 10
4.188149
 20
6.21679
 30
0.0
 11
4.135469
 21
6.21679
 31
0.0
  0
LINE
  5
126
100
AcDbEntity
 67
     1
  8
1
390
0
  6
Continuous
 62
     7
100
AcDbLine
 10
4.188149
 20
6.21479
 30
0.0
 11
4.128005
 21
6.21479
 31
0.0
  0
LINE
  5
127
100
AcDbEntity
 67
     1
  8
1
390
0
  6
Continuous
 62
     7
100
AcDbLine
 10
4.188149
 20
6.21279
 30
0.0
 11
4.120541
 21
6.21279
 31
0.0
  0
LINE
  5
128
100
AcDbEntity
 67
     1
  8
1
390
0
  6
Continuous
 62
     7
100
AcDbLine
 10
4.188149
 20
6.21079
 30
0.0
 11
4.113077
 21
6.21079
 31
0.0
  0
LINE
  5
129
100
AcDbEntity
 67
     1
  8
1
390
0
  6
Continuous
 62
     7
100
AcDbLine
 10
4.188149
 20
6.20879
 30
0.0
 11
4.105613
 21
6.20879
 31
0.0
  0
LINE
  5
12A
100
AcDbEntity
 67
     1
  8
1
390
0
  6
Continuous
 62
     7
100
AcDbLine
 10
4.188149
 20
6.20679
 30
0.0
 11
4.098149
 21
6.20679
 31
0.0
  0
LINE
  5
12B
100
AcDbEntity
 67
     1
  8
1
390
0
  6
Continuous
 62
     7
100
AcDbLine
 10
4.468139
 20
6.20679
 30
0.0
 11
4.378139
 21
6.230906
 31
0.0
  0
LINE
  5
12C
100
AcDbEntity
 67
     1
  8
1
390
0
  6
Continuous
 62
     7
100
AcDbLine
 10
4.378139
 20
6.230906
 30
0.0
 11
4.378139
 21
6.182674
 31
0.0
  0
LINE
  5
12D
100
AcDbEntity
 67
     1
  8
1
390
0
  6
Continuous
 62
     7
100
AcDbLine
 10
4.378139
 20
6.182674
 30
0.0
 11
4.468139
 21
6.20679
 31
0.0
  0
LINE
  5
12E
100
AcDbEntity
 67
     1
  8
1
390
0
  6
Continuous
 62
     7
100
AcDbLine
 10
4.378139
 20
6.23079
 30
0.0
 11
4.37857
 21
6.23079
 31
0.0
  0
LINE
  5
12F
100
AcDbEntity
 67
     1
  8
1
390
0
  6
Continuous
 62
     7
100
AcDbLine
 10
4.378139
 20
6.23079
 30
0.0
 11
4.37857
 21
6.23079
 31
0.0
  0
LINE
  5
130
100
AcDbEntity
 67
     1
  8
1
390
0
  6
Continuous
 62
     7
100
AcDbLine
 10
4.378139
 20
6.22879
 30
0.0
 11
4.386034
 21
6.22879
 31
0.0
  0
LINE
  5
131
100
AcDbEntity
 67
     1
  8
1
390
0
  6
Continuous
 62
     7
100
AcDbLine
 10
4.378139
 20
6.22679
 30
0.0
 11
4.393498
 21
6.22679
 31
0.0
  0
LINE
  5
132
100
AcDbEntity
 67
     1
  8
1
390
0
  6
Continuous
 62
     7
100
AcDbLine
 10
4.378139
 20
6.22479
 30
0.0
 11
4.400962
 21
6.22479
 31
0.0
  0
LINE
  5
133
100
AcDbEntity
 67
     1
  8
1
390
0
  6
Continuous
 62
     7
100
AcDbLine
 10
4.378139
 20
6.22279
 30
0.0
 11
4.408426
 21
6.22279
 31
0.0
  0
LINE
  5
134
100
AcDbEntity
 67
     1
  8
1
390
0
  6
Continuous
 62
     7
100
AcDbLine
 10
4.378139
 20
6.22079
 30
0.0
 11
4.41589
 21
6.22079
 31
0.0
  0
LINE
  5
135
100
AcDbEntity
 67
     1
  8
1
390
0
  6
Continuous
 62
     7
100
AcDbLine
 10
4.378139
 20
6.21879
 30
0.0
 11
4.423354
 21
6.21879
 31
0.0
  0
LINE
  5
136
100
AcDbEntity
 67
     1
  8
1
390
0
  6
Continuous
 62
     7
100
AcDbLine
 10
4.378139
 20
6.21679
 30
0.0
 11
4.430819
 21
6.21679
 31
0.0
  0
LINE
  5
137
100
AcDbEntity
 67
     1
  8
1
390
0
  6
Continuous
 62
     7
100
AcDbLine
 10
4.378139
 20
6.21479
 30
0.0
 11
4.438282
 21
6.21479
 31
0.0
  0
LINE
  5
138
100
AcDbEntity
 67
     1
  8
1
390
0
  6
Continuous
 62
     7
100
AcDbLine
 10
4.378139
 20
6.21279
 30
0.0
 11
4.445746
 21
6.21279
 31
0.0
  0
LINE
  5
139
100
AcDbEntity
 67
     1
  8
1
390
0
  6
Continuous
 62
     7
100
AcDbLine
 10
4.378139
 20
6.21079
 30
0.0
 11
4.453211
 21
6.21079
 31
0.0
  0
LINE
  5
13A
100
AcDbEntity
 67
     1
  8
1
390
0
  6
Continuous
 62
     7
100
AcDbLine
 10
4.378139
 20
6.20879
 30
0.0
 11
4.460675
 21
6.20879
 31
0.0
  0
LINE
  5
13B
100
AcDbEntity
 67
     1
  8
1
390
0
  6
Continuous
 62
     7
100
AcDbLine
 10
4.378139
 20
6.20679
 30
0.0
 11
4.468139
 21
6.20679
 31
0.0
  0
LINE
  5
13C
100
AcDbEntity
 67
     1
  8
1
390
0
  6
Continuous
 62
     7
100
AcDbLine
 10
4.378139
 20
6.18279
 30
0.0
 11
4.37857
 21
6.18279
 31
0.0
  0
LINE
  5
13D
100
AcDbEntity
 67
     1
  8
1
390
0
  6
Continuous
 62
     7
100
AcDbLine
 10
4.378139
 20
6.18279
 30
0.0
 11
4.37857
 21
6.18279
 31
0.0
  0
LINE
  5
13E
100
AcDbEntity
 67
     1
  8
1
390
0
  6
Continuous
 62
     7
100
AcDbLine
 10
4.378139
 20
6.18479
 30
0.0
 11
4.386034
 21
6.18479
 31
0.0
  0
LINE
  5
13F
100
AcDbEntity
 67
     1
  8
1
390
0
  6
Continuous
 62
     7
100
AcDbLine
 10
4.378139
 20
6.18679
 30
0.0
 11
4.393498
 21
6.18679
 31
0.0
  0
LINE
  5
140
100
AcDbEntity
 67
     1
  8
1
390
0
  6
Continuous
 62
     7
100
AcDbLine
 10
4.378139
 20
6.18879
 30
0.0
 11
4.400962
 21
6.18879
 31
0.0
  0
LINE
  5
141
100
AcDbEntity
 67
     1
  8
1
390
0
  6
Continuous
 62
     7
100
AcDbLine
 10
4.378139
 20
6.19079
 30
0.0
 11
4.408426
 21
6.19079
 31
0.0
  0
LINE
  5
142
100
AcDbEntity
 67
     1
  8
1
390
0
  6
Continuous
 62
     7
100
AcDbLine
 10
4.378139
 20
6.19279
 30
0.0
 11
4.41589
 21
6.19279
 31
0.0
  0
LINE
  5
143
100
AcDbEntity
 67
     1
  8
1
390
0
  6
Continuous
 62
     7
100
AcDbLine
 10
4.378139
 20
6.19479
 30
0.0
 11
4.423354
 21
6.19479
 31
0.0
  0
LINE
  5
144
100
AcDbEntity
 67
     1
  8
1
390
0
  6
Continuous
 62
     7
100
AcDbLine
 10
4.378139
 20
6.19679
 30
0.0
 11
4.430819
 21
6.19679
 31
0.0
  0
LINE
  5
145
100
AcDbEntity
 67
     1
  8
1
390
0
  6
Continuous
 62
     7
100
AcDbLine
 10
4.378139
 20
6.19879
 30
0.0
 11
4.438282
 21
6.19879
 31
0.0
  0
LINE
  5
146
100
AcDbEntity
 67
     1
  8
1
390
0
  6
Continuous
 62
     7
100
AcDbLine
 10
4.378139
 20
6.20079
 30
0.0
 11
4.445746
 21
6.20079
 31
0.0
  0
LINE
  5
147
100
AcDbEntity
 67
     1
  8
1
390
0
  6
Continuous
 62
     7
100
AcDbLine
 10
4.378139
 20
6.20279
 30
0.0
 11
4.453211
 21
6.20279
 31
0.0
  0
LINE
  5
148
100
AcDbEntity
 67
     1
  8
1
390
0
  6
Continuous
 62
     7
100
AcDbLine
 10
4.378139
 20
6.20479
 30
0.0
 11
4.460675
 21
6.20479
 31
0.0
  0
LINE
  5
149
100
AcDbEntity
 67
     1
  8
1
390
0
  6
Continuous
 62
     7
100
AcDbLine
 10
4.378139
 20
6.20679
 30
0.0
 11
4.468139
 21
6.20679
 31
0.0
  0
LINE
  5
14A
100
AcDbEntity
 67
     1
  8
1
390
0
  6
Continuous
 62
     7
100
AcDbLine
 10
4.529974
 20
7.360486
 30
0.0
 11
4.484974
 21
7.360486
 31
0.0
  0
LINE
  5
14B
100
AcDbEntity
 67
     1
  8
1
390
0
  6
Continuous
 62
     7
100
AcDbLine
 10
4.484974
 20
7.360486
 30
0.0
 11
4.484974
 21
7.191736
 31
0.0
  0
LINE
  5
14C
100
AcDbEntity
 67
     1
  8
1
390
0
  6
Continuous
 62
     7
100
AcDbLine
 10
4.484974
 20
7.191736
 30
0.0
 11
4.529974
 21
7.191736
 31
0.0
  0
LINE
  5
14D
100
AcDbEntity
 67
     1
  8
1
390
0
  6
Continuous
 62
     7
100
AcDbLine
 10
5.375224
 20
7.191736
 30
0.0
 11
5.420224
 21
7.191736
 31
0.0
  0
LINE
  5
14E
100
AcDbEntity
 67
     1
  8
1
390
0
  6
Continuous
 62
     7
100
AcDbLine
 10
5.420224
 20
7.191736
 30
0.0
 11
5.420224
 21
7.360486
 31
0.0
  0
LINE
  5
14F
100
AcDbEntity
 67
     1
  8
1
390
0
  6
Continuous
 62
     7
100
AcDbLine
 10
5.420224
 20
7.360486
 30
0.0
 11
5.375224
 21
7.360486
 31
0.0
  0
LINE
  5
150
100
AcDbEntity
 67
     1
  8
1
390
0
  6
Continuous
 62
     7
100
AcDbLine
 10
4.162818
 20
7.495486
 30
0.0
 11
4.412818
 21
7.495486
 31
0.0
  0
LINE
  5
151
100
AcDbEntity
 67
     1
  8
1
390
0
  6
Continuous
 62
     7
100
AcDbLine
 10
4.162818
 20
6.661176
 30
0.0
 11
4.162818
 21
6.436176
 31
0.0
  0
LINE
  5
152
100
AcDbEntity
 67
     1
  8
1
390
0
  6
Continuous
 62
     7
100
AcDbLine
 10
4.162818
 20
6.848176
 30
0.0
 11
4.162818
 21
7.495486
 31
0.0
  0
LINE
  5
153
100
AcDbEntity
 67
     1
  8
1
390
0
  6
Continuous
 62
     7
100
AcDbLine
 10
5.015318
 20
7.494549
 30
0.0
 11
4.970318
 21
7.494549
 31
0.0
  0
LINE
  5
154
100
AcDbEntity
 67
     1
  8
1
390
0
  6
Continuous
 62
     7
100
AcDbLine
 10
4.992818
 20
7.517049
 30
0.0
 11
4.992818
 21
7.472049
 31
0.0
  0
LINE
  5
155
100
AcDbEntity
 67
     1
  8
1
390
0
  6
Continuous
 62
     7
100
AcDbLine
 10
4.970318
 20
7.449549
 30
0.0
 11
5.015318
 21
7.449549
 31
0.0
  0
LINE
  5
156
100
AcDbEntity
 67
     1
  8
1
390
0
  6
Continuous
 62
     7
100
AcDbLine
 10
4.966287
 20
7.275174
 30
0.0
 11
4.921287
 21
7.275174
 31
0.0
  0
LINE
  5
157
100
AcDbEntity
 67
     1
  8
1
390
0
  6
Continuous
 62
     7
100
AcDbLine
 10
4.943787
 20
7.297674
 30
0.0
 11
4.943787
 21
7.252674
 31
0.0
  0
LINE
  5
158
100
AcDbEntity
 67
     1
  8
1
390
0
  6
Continuous
 62
     7
100
AcDbLine
 10
4.921287
 20
7.230174
 30
0.0
 11
4.966287
 21
7.230174
 31
0.0
  0
LINE
  5
159
100
AcDbEntity
 67
     1
  8
1
390
0
  6
Continuous
 62
     7
100
AcDbLine
 10
4.162818
 20
6.661176
 30
0.0
 11
4.138702
 21
6.571176
 31
0.0
  0
LINE
  5
15A
100
AcDbEntity
 67
     1
  8
1
390
0
  6
Continuous
 62
     7
100
AcDbLine
 10
4.138702
 20
6.571176
 30
0.0
 11
4.186934
 21
6.571176
 31
0.0
  0
LINE
  5
15B
100
AcDbEntity
 67
     1
  8
1
390
0
  6
Continuous
 62
     7
100
AcDbLine
 10
4.186934
 20
6.571176
 30
0.0
 11
4.162818
 21
6.661176
 31
0.0
  0
LINE
  5
15C
100
AcDbEntity
 67
     1
  8
1
390
0
  6
Continuous
 62
     7
100
AcDbLine
 10
4.138818
 20
6.571176
 30
0.0
 11
4.138818
 21
6.571607
 31
0.0
  0
LINE
  5
15D
100
AcDbEntity
 67
     1
  8
1
390
0
  6
Continuous
 62
     7
100
AcDbLine
 10
4.138818
 20
6.571176
 30
0.0
 11
4.138818
 21
6.571607
 31
0.0
  0
LINE
  5
15E
100
AcDbEntity
 67
     1
  8
1
390
0
  6
Continuous
 62
     7
100
AcDbLine
 10
4.140818
 20
6.571176
 30
0.0
 11
4.140818
 21
6.579071
 31
0.0
  0
LINE
  5
15F
100
AcDbEntity
 67
     1
  8
1
390
0
  6
Continuous
 62
     7
100
AcDbLine
 10
4.142818
 20
6.571176
 30
0.0
 11
4.142818
 21
6.586535
 31
0.0
  0
LINE
  5
160
100
AcDbEntity
 67
     1
  8
1
390
0
  6
Continuous
 62
     7
100
AcDbLine
 10
4.144818
 20
6.571176
 30
0.0
 11
4.144818
 21
6.593999
 31
0.0
  0
LINE
  5
161
100
AcDbEntity
 67
     1
  8
1
390
0
  6
Continuous
 62
     7
100
AcDbLine
 10
4.146818
 20
6.571176
 30
0.0
 11
4.146818
 21
6.601463
 31
0.0
  0
LINE
  5
162
100
AcDbEntity
 67
     1
  8
1
390
0
  6
Continuous
 62
     7
100
AcDbLine
 10
4.148818
 20
6.571176
 30
0.0
 11
4.148818
 21
6.608927
 31
0.0
  0
LINE
  5
163
100
AcDbEntity
 67
     1
  8
1
390
0
  6
Continuous
 62
     7
100
AcDbLine
 10
4.150818
 20
6.571176
 30
0.0
 11
4.150818
 21
6.616392
 31
0.0
  0
LINE
  5
164
100
AcDbEntity
 67
     1
  8
1
390
0
  6
Continuous
 62
     7
100
AcDbLine
 10
4.152818
 20
6.571176
 30
0.0
 11
4.152818
 21
6.623856
 31
0.0
  0
LINE
  5
165
100
AcDbEntity
 67
     1
  8
1
390
0
  6
Continuous
 62
     7
100
AcDbLine
 10
4.154818
 20
6.571176
 30
0.0
 11
4.154818
 21
6.63132
 31
0.0
  0
LINE
  5
166
100
AcDbEntity
 67
     1
  8
1
390
0
  6
Continuous
 62
     7
100
AcDbLine
 10
4.156818
 20
6.571176
 30
0.0
 11
4.156818
 21
6.638784
 31
0.0
  0
LINE
  5
167
100
AcDbEntity
 67
     1
  8
1
390
0
  6
Continuous
 62
     7
100
AcDbLine
 10
4.158818
 20
6.571176
 30
0.0
 11
4.158818
 21
6.646248
 31
0.0
  0
LINE
  5
168
100
AcDbEntity
 67
     1
  8
1
390
0
  6
Continuous
 62
     7
100
AcDbLine
 10
4.160818
 20
6.571176
 30
0.0
 11
4.160818
 21
6.653712
 31
0.0
  0
LINE
  5
169
100
AcDbEntity
 67
     1
  8
1
390
0
  6
Continuous
 62
     7
100
AcDbLine
 10
4.162818
 20
6.571176
 30
0.0
 11
4.162818
 21
6.661176
 31
0.0
  0
LINE
  5
16A
100
AcDbEntity
 67
     1
  8
1
390
0
  6
Continuous
 62
     7
100
AcDbLine
 10
4.186818
 20
6.571176
 30
0.0
 11
4.186818
 21
6.571607
 31
0.0
  0
LINE
  5
16B
100
AcDbEntity
 67
     1
  8
1
390
0
  6
Continuous
 62
     7
100
AcDbLine
 10
4.186818
 20
6.571176
 30
0.0
 11
4.186818
 21
6.571607
 31
0.0
  0
LINE
  5
16C
100
AcDbEntity
 67
     1
  8
1
390
0
  6
Continuous
 62
     7
100
AcDbLine
 10
4.184818
 20
6.571176
 30
0.0
 11
4.184818
 21
6.579071
 31
0.0
  0
LINE
  5
16D
100
AcDbEntity
 67
     1
  8
1
390
0
  6
Continuous
 62
     7
100
AcDbLine
 10
4.182818
 20
6.571176
 30
0.0
 11
4.182818
 21
6.586535
 31
0.0
  0
LINE
  5
16E
100
AcDbEntity
 67
     1
  8
1
390
0
  6
Continuous
 62
     7
100
AcDbLine
 10
4.180818
 20
6.571176
 30
0.0
 11
4.180818
 21
6.593999
 31
0.0
  0
LINE
  5
16F
100
AcDbEntity
 67
     1
  8
1
390
0
  6
Continuous
 62
     7
100
AcDbLine
 10
4.178818
 20
6.571176
 30
0.0
 11
4.178818
 21
6.601463
 31
0.0
  0
LINE
  5
170
100
AcDbEntity
 67
     1
  8
1
390
0
  6
Continuous
 62
     7
100
AcDbLine
 10
4.176818
 20
6.571176
 30
0.0
 11
4.176818
 21
6.608927
 31
0.0
  0
LINE
  5
171
100
AcDbEntity
 67
     1
  8
1
390
0
  6
Continuous
 62
     7
100
AcDbLine
 10
4.174818
 20
6.571176
 30
0.0
 11
4.174818
 21
6.616392
 31
0.0
  0
LINE
  5
172
100
AcDbEntity
 67
     1
  8
1
390
0
  6
Continuous
 62
     7
100
AcDbLine
 10
4.172818
 20
6.571176
 30
0.0
 11
4.172818
 21
6.623856
 31
0.0
  0
LINE
  5
173
100
AcDbEntity
 67
     1
  8
1
390
0
  6
Continuous
 62
     7
100
AcDbLine
 10
4.170818
 20
6.571176
 30
0.0
 11
4.170818
 21
6.63132
 31
0.0
  0
LINE
  5
174
100
AcDbEntity
 67
     1
  8
1
390
0
  6
Continuous
 62
     7
100
AcDbLine
 10
4.168818
 20
6.571176
 30
0.0
 11
4.168818
 21
6.638784
 31
0.0
  0
LINE
  5
175
100
AcDbEntity
 67
     1
  8
1
390
0
  6
Continuous
 62
     7
100
AcDbLine
 10
4.166818
 20
6.571176
 30
0.0
 11
4.166818
 21
6.646248
 31
0.0
  0
LINE
  5
176
100
AcDbEntity
 67
     1
  8
1
390
0
  6
Continuous
 62
     7
100
AcDbLine
 10
4.164818
 20
6.571176
 30
0.0
 11
4.164818
 21
6.653712
 31
0.0
  0
LINE
  5
177
100
AcDbEntity
 67
     1
  8
1
390
0
  6
Continuous
 62
     7
100
AcDbLine
 10
4.162818
 20
6.571176
 30
0.0
 11
4.162818
 21
6.661176
 31
0.0
  0
LINE
  5
178
100
AcDbEntity
 67
     1
  8
1
390
0
  6
Continuous
 62
     7
100
AcDbLine
 10
4.162818
 20
6.848176
 30
0.0
 11
4.186934
 21
6.938176
 31
0.0
  0
LINE
  5
179
100
AcDbEntity
 67
     1
  8
1
390
0
  6
Continuous
 62
     7
100
AcDbLine
 10
4.186934
 20
6.938176
 30
0.0
 11
4.138702
 21
6.938176
 31
0.0
  0
LINE
  5
17A
100
AcDbEntity
 67
     1
  8
1
390
0
  6
Continuous
 62
     7
100
AcDbLine
 10
4.138702
 20
6.938176
 30
0.0
 11
4.162818
 21
6.848176
 31
0.0
  0
LINE
  5
17B
100
AcDbEntity
 67
     1
  8
1
390
0
  6
Continuous
 62
     7
100
AcDbLine
 10
4.186818
 20
6.938176
 30
0.0
 11
4.186818
 21
6.937745
 31
0.0
  0
LINE
  5
17C
100
AcDbEntity
 67
     1
  8
1
390
0
  6
Continuous
 62
     7
100
AcDbLine
 10
4.186818
 20
6.938176
 30
0.0
 11
4.186818
 21
6.937745
 31
0.0
  0
LINE
  5
17D
100
AcDbEntity
 67
     1
  8
1
390
0
  6
Continuous
 62
     7
100
AcDbLine
 10
4.184818
 20
6.938176
 30
0.0
 11
4.184818
 21
6.930281
 31
0.0
  0
LINE
  5
17E
100
AcDbEntity
 67
     1
  8
1
390
0
  6
Continuous
 62
     7
100
AcDbLine
 10
4.182818
 20
6.938176
 30
0.0
 11
4.182818
 21
6.922817
 31
0.0
  0
LINE
  5
17F
100
AcDbEntity
 67
     1
  8
1
390
0
  6
Continuous
 62
     7
100
AcDbLine
 10
4.180818
 20
6.938176
 30
0.0
 11
4.180818
 21
6.915353
 31
0.0
  0
LINE
  5
180
100
AcDbEntity
 67
     1
  8
1
390
0
  6
Continuous
 62
     7
100
AcDbLine
 10
4.178818
 20
6.938176
 30
0.0
 11
4.178818
 21
6.907889
 31
0.0
  0
LINE
  5
181
100
AcDbEntity
 67
     1
  8
1
390
0
  6
Continuous
 62
     7
100
AcDbLine
 10
4.176818
 20
6.938176
 30
0.0
 11
4.176818
 21
6.900425
 31
0.0
  0
LINE
  5
182
100
AcDbEntity
 67
     1
  8
1
390
0
  6
Continuous
 62
     7
100
AcDbLine
 10
4.174818
 20
6.938176
 30
0.0
 11
4.174818
 21
6.892961
 31
0.0
  0
LINE
  5
183
100
AcDbEntity
 67
     1
  8
1
390
0
  6
Continuous
 62
     7
100
AcDbLine
 10
4.172818
 20
6.938176
 30
0.0
 11
4.172818
 21
6.885497
 31
0.0
  0
LINE
  5
184
100
AcDbEntity
 67
     1
  8
1
390
0
  6
Continuous
 62
     7
100
AcDbLine
 10
4.170818
 20
6.938176
 30
0.0
 11
4.170818
 21
6.878033
 31
0.0
  0
LINE
  5
185
100
AcDbEntity
 67
     1
  8
1
390
0
  6
Continuous
 62
     7
100
AcDbLine
 10
4.168818
 20
6.938176
 30
0.0
 11
4.168818
 21
6.870568
 31
0.0
  0
LINE
  5
186
100
AcDbEntity
 67
     1
  8
1
390
0
  6
Continuous
 62
     7
100
AcDbLine
 10
4.166818
 20
6.938176
 30
0.0
 11
4.166818
 21
6.863104
 31
0.0
  0
LINE
  5
187
100
AcDbEntity
 67
     1
  8
1
390
0
  6
Continuous
 62
     7
100
AcDbLine
 10
4.164818
 20
6.938176
 30
0.0
 11
4.164818
 21
6.85564
 31
0.0
  0
LINE
  5
188
100
AcDbEntity
 67
     1
  8
1
390
0
  6
Continuous
 62
     7
100
AcDbLine
 10
4.162818
 20
6.938176
 30
0.0
 11
4.162818
 21
6.848176
 31
0.0
  0
LINE
  5
189
100
AcDbEntity
 67
     1
  8
1
390
0
  6
Continuous
 62
     7
100
AcDbLine
 10
4.138818
 20
6.938176
 30
0.0
 11
4.138818
 21
6.937745
 31
0.0
  0
LINE
  5
18A
100
AcDbEntity
 67
     1
  8
1
390
0
  6
Continuous
 62
     7
100
AcDbLine
 10
4.138818
 20
6.938176
 30
0.0
 11
4.138818
 21
6.937745
 31
0.0
  0
LINE
  5
18B
100
AcDbEntity
 67
     1
  8
1
390
0
  6
Continuous
 62
     7
100
AcDbLine
 10
4.140818
 20
6.938176
 30
0.0
 11
4.140818
 21
6.930281
 31
0.0
  0
LINE
  5
18C
100
AcDbEntity
 67
     1
  8
1
390
0
  6
Continuous
 62
     7
100
AcDbLine
 10
4.142818
 20
6.938176
 30
0.0
 11
4.142818
 21
6.922817
 31
0.0
  0
LINE
  5
18D
100
AcDbEntity
 67
     1
  8
1
390
0
  6
Continuous
 62
     7
100
AcDbLine
 10
4.144818
 20
6.938176
 30
0.0
 11
4.144818
 21
6.915353
 31
0.0
  0
LINE
  5
18E
100
AcDbEntity
 67
     1
  8
1
390
0
  6
Continuous
 62
     7
100
AcDbLine
 10
4.146818
 20
6.938176
 30
0.0
 11
4.146818
 21
6.907889
 31
0.0
  0
LINE
  5
18F
100
AcDbEntity
 67
     1
  8
1
390
0
  6
Continuous
 62
     7
100
AcDbLine
 10
4.148818
 20
6.938176
 30
0.0
 11
4.148818
 21
6.900425
 31
0.0
  0
LINE
  5
190
100
AcDbEntity
 67
     1
  8
1
390
0
  6
Continuous
 62
     7
100
AcDbLine
 10
4.150818
 20
6.938176
 30
0.0
 11
4.150818
 21
6.892961
 31
0.0
  0
LINE
  5
191
100
AcDbEntity
 67
     1
  8
1
390
0
  6
Continuous
 62
     7
100
AcDbLine
 10
4.152818
 20
6.938176
 30
0.0
 11
4.152818
 21
6.885497
 31
0.0
  0
LINE
  5
192
100
AcDbEntity
 67
     1
  8
1
390
0
  6
Continuous
 62
     7
100
AcDbLine
 10
4.154818
 20
6.938176
 30
0.0
 11
4.154818
 21
6.878033
 31
0.0
  0
LINE
  5
193
100
AcDbEntity
 67
     1
  8
1
390
0
  6
Continuous
 62
     7
100
AcDbLine
 10
4.156818
 20
6.938176
 30
0.0
 11
4.156818
 21
6.870568
 31
0.0
  0
LINE
  5
194
100
AcDbEntity
 67
     1
  8
1
390
0
  6
Continuous
 62
     7
100
AcDbLine
 10
4.158818
 20
6.938176
 30
0.0
 11
4.158818
 21
6.863104
 31
0.0
  0
LINE
  5
195
100
AcDbEntity
 67
     1
  8
1
390
0
  6
Continuous
 62
     7
100
AcDbLine
 10
4.160818
 20
6.938176
 30
0.0
 11
4.160818
 21
6.85564
 31
0.0
  0
LINE
  5
196
100
AcDbEntity
 67
     1
  8
1
390
0
  6
Continuous
 62
     7
100
AcDbLine
 10
4.162818
 20
6.938176
 30
0.0
 11
4.162818
 21
6.848176
 31
0.0
  0
LINE
  5
197
100
AcDbEntity
 67
     1
  8
1
390
0
  6
Continuous
 62
     7
100
AcDbLine
 10
3.376391
 20
7.654655
 30
0.0
 11
3.626391
 21
7.654655
 31
0.0
  0
LINE
  5
198
100
AcDbEntity
 67
     1
  8
1
390
0
  6
Continuous
 62
     7
100
AcDbLine
 10
4.029123
 20
6.840401
 30
0.0
 11
3.626391
 21
7.654655
 31
0.0
  0
LINE
  5
199
100
AcDbEntity
 67
     1
  8
1
390
0
  6
Continuous
 62
     7
100
AcDbLine
 10
4.029123
 20
6.840401
 30
0.0
 11
4.010839
 21
6.931764
 31
0.0
  0
LINE
  5
19A
100
AcDbEntity
 67
     1
  8
1
390
0
  6
Continuous
 62
     7
100
AcDbLine
 10
4.010839
 20
6.931764
 30
0.0
 11
3.967607
 21
6.910382
 31
0.0
  0
LINE
  5
19B
100
AcDbEntity
 67
     1
  8
1
390
0
  6
Continuous
 62
     7
100
AcDbLine
 10
3.967607
 20
6.910382
 30
0.0
 11
4.029123
 21
6.840401
 31
0.0
  0
LINE
  5
19C
100
AcDbEntity
 67
     1
  8
1
390
0
  6
Continuous
 62
     7
100
AcDbLine
 10
4.010735
 20
6.931713
 30
0.0
 11
4.010926
 21
6.931327
 31
0.0
  0
LINE
  5
19D
100
AcDbEntity
 67
     1
  8
1
390
0
  6
Continuous
 62
     7
100
AcDbLine
 10
4.010735
 20
6.931713
 30
0.0
 11
4.010926
 21
6.931327
 31
0.0
  0
LINE
  5
19E
100
AcDbEntity
 67
     1
  8
1
390
0
  6
Continuous
 62
     7
100
AcDbLine
 10
4.008943
 20
6.930826
 30
0.0
 11
4.012443
 21
6.92375
 31
0.0
  0
LINE
  5
19F
100
AcDbEntity
 67
     1
  8
1
390
0
  6
Continuous
 62
     7
100
AcDbLine
 10
4.00715
 20
6.92994
 30
0.0
 11
4.013959
 21
6.916173
 31
0.0
  0
LINE
  5
1A0
100
AcDbEntity
 67
     1
  8
1
390
0
  6
Continuous
 62
     7
100
AcDbLine
 10
4.005357
 20
6.929053
 30
0.0
 11
4.015475
 21
6.908596
 31
0.0
  0
LINE
  5
1A1
100
AcDbEntity
 67
     1
  8
1
390
0
  6
Continuous
 62
     7
100
AcDbLine
 10
4.003564
 20
6.928166
 30
0.0
 11
4.016992
 21
6.901018
 31
0.0
  0
LINE
  5
1A2
100
AcDbEntity
 67
     1
  8
1
390
0
  6
Continuous
 62
     7
100
AcDbLine
 10
4.001771
 20
6.927279
 30
0.0
 11
4.018508
 21
6.893441
 31
0.0
  0
LINE
  5
1A3
100
AcDbEntity
 67
     1
  8
1
390
0
  6
Continuous
 62
     7
100
AcDbLine
 10
3.999979
 20
6.926393
 30
0.0
 11
4.020025
 21
6.885864
 31
0.0
  0
LINE
  5
1A4
100
AcDbEntity
 67
     1
  8
1
390
0
  6
Continuous
 62
     7
100
AcDbLine
 10
3.998186
 20
6.925506
 30
0.0
 11
4.021541
 21
6.878287
 31
0.0
  0
LINE
  5
1A5
100
AcDbEntity
 67
     1
  8
1
390
0
  6
Continuous
 62
     7
100
AcDbLine
 10
3.996393
 20
6.92462
 30
0.0
 11
4.023057
 21
6.87071
 31
0.0
  0
LINE
  5
1A6
100
AcDbEntity
 67
     1
  8
1
390
0
  6
Continuous
 62
     7
100
AcDbLine
 10
3.994601
 20
6.923733
 30
0.0
 11
4.024574
 21
6.863132
 31
0.0
  0
LINE
  5
1A7
100
AcDbEntity
 67
     1
  8
1
390
0
  6
Continuous
 62
     7
100
AcDbLine
 10
3.992808
 20
6.922846
 30
0.0
 11
4.026091
 21
6.855556
 31
0.0
  0
LINE
  5
1A8
100
AcDbEntity
 67
     1
  8
1
390
0
  6
Continuous
 62
     7
100
AcDbLine
 10
3.991015
 20
6.92196
 30
0.0
 11
4.027607
 21
6.847978
 31
0.0
  0
LINE
  5
1A9
100
AcDbEntity
 67
     1
  8
1
390
0
  6
Continuous
 62
     7
100
AcDbLine
 10
3.989223
 20
6.921073
 30
0.0
 11
4.029123
 21
6.840401
 31
0.0
  0
LINE
  5
1AA
100
AcDbEntity
 67
     1
  8
1
390
0
  6
Continuous
 62
     7
100
AcDbLine
 10
3.96771
 20
6.910433
 30
0.0
 11
3.967901
 21
6.910047
 31
0.0
  0
LINE
  5
1AB
100
AcDbEntity
 67
     1
  8
1
390
0
  6
Continuous
 62
     7
100
AcDbLine
 10
3.96771
 20
6.910433
 30
0.0
 11
3.967901
 21
6.910047
 31
0.0
  0
LINE
  5
1AC
100
AcDbEntity
 67
     1
  8
1
390
0
  6
Continuous
 62
     7
100
AcDbLine
 10
3.969503
 20
6.91132
 30
0.0
 11
3.973003
 21
6.904243
 31
0.0
  0
LINE
  5
1AD
100
AcDbEntity
 67
     1
  8
1
390
0
  6
Continuous
 62
     7
100
AcDbLine
 10
3.971296
 20
6.912206
 30
0.0
 11
3.978105
 21
6.898439
 31
0.0
  0
LINE
  5
1AE
100
AcDbEntity
 67
     1
  8
1
390
0
  6
Continuous
 62
     7
100
AcDbLine
 10
3.973088
 20
6.913093
 30
0.0
 11
3.983207
 21
6.892635
 31
0.0
  0
LINE
  5
1AF
100
AcDbEntity
 67
     1
  8
1
390
0
  6
Continuous
 62
     7
100
AcDbLine
 10
3.974881
 20
6.91398
 30
0.0
 11
3.988309
 21
6.886831
 31
0.0
  0
LINE
  5
1B0
100
AcDbEntity
 67
     1
  8
1
390
0
  6
Continuous
 62
     7
100
AcDbLine
 10
3.976674
 20
6.914866
 30
0.0
 11
3.99341
 21
6.881028
 31
0.0
  0
LINE
  5
1B1
100
AcDbEntity
 67
     1
  8
1
390
0
  6
Continuous
 62
     7
100
AcDbLine
 10
3.978467
 20
6.915753
 30
0.0
 11
3.998512
 21
6.875224
 31
0.0
  0
LINE
  5
1B2
100
AcDbEntity
 67
     1
  8
1
390
0
  6
Continuous
 62
     7
100
AcDbLine
 10
3.980259
 20
6.91664
 30
0.0
 11
4.003614
 21
6.86942
 31
0.0
  0
LINE
  5
1B3
100
AcDbEntity
 67
     1
  8
1
390
0
  6
Continuous
 62
     7
100
AcDbLine
 10
3.982052
 20
6.917526
 30
0.0
 11
4.008716
 21
6.863616
 31
0.0
  0
LINE
  5
1B4
100
AcDbEntity
 67
     1
  8
1
390
0
  6
Continuous
 62
     7
100
AcDbLine
 10
3.983845
 20
6.918413
 30
0.0
 11
4.013818
 21
6.857812
 31
0.0
  0
LINE
  5
1B5
100
AcDbEntity
 67
     1
  8
1
390
0
  6
Continuous
 62
     7
100
AcDbLine
 10
3.985637
 20
6.9193
 30
0.0
 11
4.018919
 21
6.852009
 31
0.0
  0
LINE
  5
1B6
100
AcDbEntity
 67
     1
  8
1
390
0
  6
Continuous
 62
     7
100
AcDbLine
 10
3.98743
 20
6.920187
 30
0.0
 11
4.024022
 21
6.846205
 31
0.0
  0
LINE
  5
1B7
100
AcDbEntity
 67
     1
  8
1
390
0
  6
Continuous
 62
     7
100
AcDbLine
 10
3.989223
 20
6.921073
 30
0.0
 11
4.029123
 21
6.840401
 31
0.0
  0
LINE
  5
1B8
100
AcDbEntity
 67
     1
  8
1
390
0
  6
Continuous
 62
     7
100
AcDbLine
 10
1.15369
 20
5.319412
 30
0.0
 11
5.75369
 21
5.319412
 31
0.0
  0
LINE
  5
1B9
100
AcDbEntity
 67
     1
  8
1
390
0
  6
Continuous
 62
     7
100
AcDbLine
 10
4.15369
 20
5.319412
 30
0.0
 11
4.15369
 21
2.998412
 31
0.0
  0
LINE
  5
1BA
100
AcDbEntity
 67
     1
  8
1
390
0
  6
Continuous
 62
     7
100
AcDbLine
 10
2.85369
 20
5.319412
 30
0.0
 11
2.85369
 21
2.998412
 31
0.0
  0
LINE
  5
1BB
100
AcDbEntity
 67
     1
  8
1
390
0
  6
Continuous
 62
     7
100
AcDbLine
 10
1.15369
 20
5.319412
 30
0.0
 11
1.15369
 21
2.998412
 31
0.0
  0
LINE
  5
1BC
100
AcDbEntity
 67
     1
  8
1
390
0
  6
Continuous
 62
     7
100
AcDbLine
 10
1.15369
 20
2.998412
 30
0.0
 11
5.75369
 21
2.998412
 31
0.0
  0
LINE
  5
1BD
100
AcDbEntity
 67
     1
  8
1
390
0
  6
Continuous
 62
     7
100
AcDbLine
 10
1.15369
 20
3.420412
 30
0.0
 11
5.75369
 21
3.420412
 31
0.0
  0
LINE
  5
1BE
100
AcDbEntity
 67
     1
  8
1
390
0
  6
Continuous
 62
     7
100
AcDbLine
 10
1.15369
 20
4.686412
 30
0.0
 11
5.75369
 21
4.686412
 31
0.0
  0
LINE
  5
1BF
100
AcDbEntity
 67
     1
  8
1
390
0
  6
Continuous
 62
     7
100
AcDbLine
 10
1.15369
 20
3.842412
 30
0.0
 11
5.75369
 21
3.842412
 31
0.0
  0
LINE
  5
1C0
100
AcDbEntity
 67
     1
  8
1
390
0
  6
Continuous
 62
     7
100
AcDbLine
 10
1.15369
 20
4.264412
 30
0.0
 11
5.75369
 21
4.264412
 31
0.0
  0
LINE
  5
1C1
100
AcDbEntity
 67
     1
  8
1
390
0
  6
Continuous
 62
     7
100
AcDbLine
 10
2.390236
 20
6.2828
 30
0.0
 11
2.345236
 21
6.2828
 31
0.0
  0
LINE
  5
1C2
100
AcDbEntity
 67
     1
  8
1
390
0
  6
Continuous
 62
     7
100
AcDbLine
 10
2.345236
 20
6.2828
 30
0.0
 11
2.345236
 21
6.11405
 31
0.0
  0
LINE
  5
1C3
100
AcDbEntity
 67
     1
  8
1
390
0
  6
Continuous
 62
     7
100
AcDbLine
 10
2.345236
 20
6.11405
 30
0.0
 11
2.390236
 21
6.11405
 31
0.0
  0
LINE
  5
1C4
100
AcDbEntity
 67
     1
  8
1
390
0
  6
Continuous
 62
     7
100
AcDbLine
 10
2.664173
 20
6.11405
 30
0.0
 11
2.709173
 21
6.11405
 31
0.0
  0
LINE
  5
1C5
100
AcDbEntity
 67
     1
  8
1
390
0
  6
Continuous
 62
     7
100
AcDbLine
 10
2.709173
 20
6.11405
 30
0.0
 11
2.709173
 21
6.2828
 31
0.0
  0
LINE
  5
1C6
100
AcDbEntity
 67
     1
  8
1
390
0
  6
Continuous
 62
     7
100
AcDbLine
 10
2.709173
 20
6.2828
 30
0.0
 11
2.664173
 21
6.2828
 31
0.0
  0
LINE
  5
1C7
100
AcDbEntity
 67
     1
  8
1
390
0
  6
Continuous
 62
     7
100
AcDbLine
 10
3.644548
 20
6.4178
 30
0.0
 11
3.394548
 21
6.4178
 31
0.0
  0
LINE
  5
1C8
100
AcDbEntity
 67
     1
  8
1
390
0
  6
Continuous
 62
     7
100
AcDbLine
 10
3.644548
 20
6.693176
 30
0.0
 11
3.644548
 21
6.4178
 31
0.0
  0
LINE
  5
1C9
100
AcDbEntity
 67
     1
  8
1
390
0
  6
Continuous
 62
     7
100
AcDbLine
 10
3.644548
 20
6.816176
 30
0.0
 11
3.644548
 21
7.041176
 31
0.0
  0
LINE
  5
1CA
100
AcDbEntity
 67
     1
  8
1
390
0
  6
Continuous
 62
     7
100
AcDbLine
 10
2.810822
 20
6.34906
 30
0.0
 11
2.887357
 21
6.485123
 31
0.0
  0
LINE
  5
1CB
100
AcDbEntity
 67
     1
  8
1
390
0
  6
Continuous
 62
     7
100
AcDbLine
 10
3.644548
 20
6.693176
 30
0.0
 11
3.611055
 21
6.568176
 31
0.0
  0
LINE
  5
1CC
100
AcDbEntity
 67
     1
  8
1
390
0
  6
Continuous
 62
     7
100
AcDbLine
 10
3.611055
 20
6.568176
 30
0.0
 11
3.678042
 21
6.568176
 31
0.0
  0
LINE
  5
1CD
100
AcDbEntity
 67
     1
  8
1
390
0
  6
Continuous
 62
     7
100
AcDbLine
 10
3.678042
 20
6.568176
 30
0.0
 11
3.644548
 21
6.693176
 31
0.0
  0
LINE
  5
1CE
100
AcDbEntity
 67
     1
  8
1
390
0
  6
Continuous
 62
     7
100
AcDbLine
 10
3.611548
 20
6.568176
 30
0.0
 11
3.611548
 21
6.570018
 31
0.0
  0
LINE
  5
1CF
100
AcDbEntity
 67
     1
  8
1
390
0
  6
Continuous
 62
     7
100
AcDbLine
 10
3.611548
 20
6.568176
 30
0.0
 11
3.611548
 21
6.570018
 31
0.0
  0
LINE
  5
1D0
100
AcDbEntity
 67
     1
  8
1
390
0
  6
Continuous
 62
     7
100
AcDbLine
 10
3.613548
 20
6.568176
 30
0.0
 11
3.613548
 21
6.577483
 31
0.0
  0
LINE
  5
1D1
100
AcDbEntity
 67
     1
  8
1
390
0
  6
Continuous
 62
     7
100
AcDbLine
 10
3.615548
 20
6.568176
 30
0.0
 11
3.615548
 21
6.584947
 31
0.0
  0
LINE
  5
1D2
100
AcDbEntity
 67
     1
  8
1
390
0
  6
Continuous
 62
     7
100
AcDbLine
 10
3.617548
 20
6.568176
 30
0.0
 11
3.617548
 21
6.592411
 31
0.0
  0
LINE
  5
1D3
100
AcDbEntity
 67
     1
  8
1
390
0
  6
Continuous
 62
     7
100
AcDbLine
 10
3.619548
 20
6.568176
 30
0.0
 11
3.619548
 21
6.599875
 31
0.0
  0
LINE
  5
1D4
100
AcDbEntity
 67
     1
  8
1
390
0
  6
Continuous
 62
     7
100
AcDbLine
 10
3.621548
 20
6.568176
 30
0.0
 11
3.621548
 21
6.607339
 31
0.0
  0
LINE
  5
1D5
100
AcDbEntity
 67
     1
  8
1
390
0
  6
Continuous
 62
     7
100
AcDbLine
 10
3.623548
 20
6.568176
 30
0.0
 11
3.623548
 21
6.614803
 31
0.0
  0
LINE
  5
1D6
100
AcDbEntity
 67
     1
  8
1
390
0
  6
Continuous
 62
     7
100
AcDbLine
 10
3.625548
 20
6.568176
 30
0.0
 11
3.625548
 21
6.622267
 31
0.0
  0
LINE
  5
1D7
100
AcDbEntity
 67
     1
  8
1
390
0
  6
Continuous
 62
     7
100
AcDbLine
 10
3.627548
 20
6.568176
 30
0.0
 11
3.627548
 21
6.629731
 31
0.0
  0
LINE
  5
1D8
100
AcDbEntity
 67
     1
  8
1
390
0
  6
Continuous
 62
     7
100
AcDbLine
 10
3.629548
 20
6.568176
 30
0.0
 11
3.629548
 21
6.637195
 31
0.0
  0
LINE
  5
1D9
100
AcDbEntity
 67
     1
  8
1
390
0
  6
Continuous
 62
     7
100
AcDbLine
 10
3.631548
 20
6.568176
 30
0.0
 11
3.631548
 21
6.64466
 31
0.0
  0
LINE
  5
1DA
100
AcDbEntity
 67
     1
  8
1
390
0
  6
Continuous
 62
     7
100
AcDbLine
 10
3.633548
 20
6.568176
 30
0.0
 11
3.633548
 21
6.652123
 31
0.0
  0
LINE
  5
1DB
100
AcDbEntity
 67
     1
  8
1
390
0
  6
Continuous
 62
     7
100
AcDbLine
 10
3.635548
 20
6.568176
 30
0.0
 11
3.635548
 21
6.659588
 31
0.0
  0
LINE
  5
1DC
100
AcDbEntity
 67
     1
  8
1
390
0
  6
Continuous
 62
     7
100
AcDbLine
 10
3.637548
 20
6.568176
 30
0.0
 11
3.637548
 21
6.667052
 31
0.0
  0
LINE
  5
1DD
100
AcDbEntity
 67
     1
  8
1
390
0
  6
Continuous
 62
     7
100
AcDbLine
 10
3.639548
 20
6.568176
 30
0.0
 11
3.639548
 21
6.674516
 31
0.0
  0
LINE
  5
1DE
100
AcDbEntity
 67
     1
  8
1
390
0
  6
Continuous
 62
     7
100
AcDbLine
 10
3.641548
 20
6.568176
 30
0.0
 11
3.641548
 21
6.68198
 31
0.0
  0
LINE
  5
1DF
100
AcDbEntity
 67
     1
  8
1
390
0
  6
Continuous
 62
     7
100
AcDbLine
 10
3.643548
 20
6.568176
 30
0.0
 11
3.643548
 21
6.689444
 31
0.0
  0
LINE
  5
1E0
100
AcDbEntity
 67
     1
  8
1
390
0
  6
Continuous
 62
     7
100
AcDbLine
 10
3.677548
 20
6.568176
 30
0.0
 11
3.677548
 21
6.570018
 31
0.0
  0
LINE
  5
1E1
100
AcDbEntity
 67
     1
  8
1
390
0
  6
Continuous
 62
     7
100
AcDbLine
 10
3.677548
 20
6.568176
 30
0.0
 11
3.677548
 21
6.570018
 31
0.0
  0
LINE
  5
1E2
100
AcDbEntity
 67
     1
  8
1
390
0
  6
Continuous
 62
     7
100
AcDbLine
 10
3.675548
 20
6.568176
 30
0.0
 11
3.675548
 21
6.577483
 31
0.0
  0
LINE
  5
1E3
100
AcDbEntity
 67
     1
  8
1
390
0
  6
Continuous
 62
     7
100
AcDbLine
 10
3.673548
 20
6.568176
 30
0.0
 11
3.673548
 21
6.584947
 31
0.0
  0
LINE
  5
1E4
100
AcDbEntity
 67
     1
  8
1
390
0
  6
Continuous
 62
     7
100
AcDbLine
 10
3.671548
 20
6.568176
 30
0.0
 11
3.671548
 21
6.592411
 31
0.0
  0
LINE
  5
1E5
100
AcDbEntity
 67
     1
  8
1
390
0
  6
Continuous
 62
     7
100
AcDbLine
 10
3.669548
 20
6.568176
 30
0.0
 11
3.669548
 21
6.599875
 31
0.0
  0
LINE
  5
1E6
100
AcDbEntity
 67
     1
  8
1
390
0
  6
Continuous
 62
     7
100
AcDbLine
 10
3.667548
 20
6.568176
 30
0.0
 11
3.667548
 21
6.607339
 31
0.0
  0
LINE
  5
1E7
100
AcDbEntity
 67
     1
  8
1
390
0
  6
Continuous
 62
     7
100
AcDbLine
 10
3.665548
 20
6.568176
 30
0.0
 11
3.665548
 21
6.614803
 31
0.0
  0
LINE
  5
1E8
100
AcDbEntity
 67
     1
  8
1
390
0
  6
Continuous
 62
     7
100
AcDbLine
 10
3.663548
 20
6.568176
 30
0.0
 11
3.663548
 21
6.622267
 31
0.0
  0
LINE
  5
1E9
100
AcDbEntity
 67
     1
  8
1
390
0
  6
Continuous
 62
     7
100
AcDbLine
 10
3.661548
 20
6.568176
 30
0.0
 11
3.661548
 21
6.629731
 31
0.0
  0
LINE
  5
1EA
100
AcDbEntity
 67
     1
  8
1
390
0
  6
Continuous
 62
     7
100
AcDbLine
 10
3.659548
 20
6.568176
 30
0.0
 11
3.659548
 21
6.637195
 31
0.0
  0
LINE
  5
1EB
100
AcDbEntity
 67
     1
  8
1
390
0
  6
Continuous
 62
     7
100
AcDbLine
 10
3.657548
 20
6.568176
 30
0.0
 11
3.657548
 21
6.64466
 31
0.0
  0
LINE
  5
1EC
100
AcDbEntity
 67
     1
  8
1
390
0
  6
Continuous
 62
     7
100
AcDbLine
 10
3.655548
 20
6.568176
 30
0.0
 11
3.655548
 21
6.652123
 31
0.0
  0
LINE
  5
1ED
100
AcDbEntity
 67
     1
  8
1
390
0
  6
Continuous
 62
     7
100
AcDbLine
 10
3.653548
 20
6.568176
 30
0.0
 11
3.653548
 21
6.659588
 31
0.0
  0
LINE
  5
1EE
100
AcDbEntity
 67
     1
  8
1
390
0
  6
Continuous
 62
     7
100
AcDbLine
 10
3.651548
 20
6.568176
 30
0.0
 11
3.651548
 21
6.667052
 31
0.0
  0
LINE
  5
1EF
100
AcDbEntity
 67
     1
  8
1
390
0
  6
Continuous
 62
     7
100
AcDbLine
 10
3.649548
 20
6.568176
 30
0.0
 11
3.649548
 21
6.674516
 31
0.0
  0
LINE
  5
1F0
100
AcDbEntity
 67
     1
  8
1
390
0
  6
Continuous
 62
     7
100
AcDbLine
 10
3.647548
 20
6.568176
 30
0.0
 11
3.647548
 21
6.68198
 31
0.0
  0
LINE
  5
1F1
100
AcDbEntity
 67
     1
  8
1
390
0
  6
Continuous
 62
     7
100
AcDbLine
 10
3.645548
 20
6.568176
 30
0.0
 11
3.645548
 21
6.689444
 31
0.0
  0
LINE
  5
1F2
100
AcDbEntity
 67
     1
  8
1
390
0
  6
Continuous
 62
     7
100
AcDbLine
 10
3.644548
 20
6.816176
 30
0.0
 11
3.678042
 21
6.941176
 31
0.0
  0
LINE
  5
1F3
100
AcDbEntity
 67
     1
  8
1
390
0
  6
Continuous
 62
     7
100
AcDbLine
 10
3.678042
 20
6.941176
 30
0.0
 11
3.611055
 21
6.941176
 31
0.0
  0
LINE
  5
1F4
100
AcDbEntity
 67
     1
  8
1
390
0
  6
Continuous
 62
     7
100
AcDbLine
 10
3.611055
 20
6.941176
 30
0.0
 11
3.644548
 21
6.816176
 31
0.0
  0
LINE
  5
1F5
100
AcDbEntity
 67
     1
  8
1
390
0
  6
Continuous
 62
     7
100
AcDbLine
 10
3.677548
 20
6.941176
 30
0.0
 11
3.677548
 21
6.939334
 31
0.0
  0
LINE
  5
1F6
100
AcDbEntity
 67
     1
  8
1
390
0
  6
Continuous
 62
     7
100
AcDbLine
 10
3.677548
 20
6.941176
 30
0.0
 11
3.677548
 21
6.939334
 31
0.0
  0
LINE
  5
1F7
100
AcDbEntity
 67
     1
  8
1
390
0
  6
Continuous
 62
     7
100
AcDbLine
 10
3.675548
 20
6.941176
 30
0.0
 11
3.675548
 21
6.93187
 31
0.0
  0
LINE
  5
1F8
100
AcDbEntity
 67
     1
  8
1
390
0
  6
Continuous
 62
     7
100
AcDbLine
 10
3.673548
 20
6.941176
 30
0.0
 11
3.673548
 21
6.924406
 31
0.0
  0
LINE
  5
1F9
100
AcDbEntity
 67
     1
  8
1
390
0
  6
Continuous
 62
     7
100
AcDbLine
 10
3.671548
 20
6.941176
 30
0.0
 11
3.671548
 21
6.916942
 31
0.0
  0
LINE
  5
1FA
100
AcDbEntity
 67
     1
  8
1
390
0
  6
Continuous
 62
     7
100
AcDbLine
 10
3.669548
 20
6.941176
 30
0.0
 11
3.669548
 21
6.909477
 31
0.0
  0
LINE
  5
1FB
100
AcDbEntity
 67
     1
  8
1
390
0
  6
Continuous
 62
     7
100
AcDbLine
 10
3.667548
 20
6.941176
 30
0.0
 11
3.667548
 21
6.902013
 31
0.0
  0
LINE
  5
1FC
100
AcDbEntity
 67
     1
  8
1
390
0
  6
Continuous
 62
     7
100
AcDbLine
 10
3.665548
 20
6.941176
 30
0.0
 11
3.665548
 21
6.894549
 31
0.0
  0
LINE
  5
1FD
100
AcDbEntity
 67
     1
  8
1
390
0
  6
Continuous
 62
     7
100
AcDbLine
 10
3.663548
 20
6.941176
 30
0.0
 11
3.663548
 21
6.887085
 31
0.0
  0
LINE
  5
1FE
100
AcDbEntity
 67
     1
  8
1
390
0
  6
Continuous
 62
     7
100
AcDbLine
 10
3.661548
 20
6.941176
 30
0.0
 11
3.661548
 21
6.879621
 31
0.0
  0
LINE
  5
1FF
100
AcDbEntity
 67
     1
  8
1
390
0
  6
Continuous
 62
     7
100
AcDbLine
 10
3.659548
 20
6.941176
 30
0.0
 11
3.659548
 21
6.872157
 31
0.0
  0
LINE
  5
200
100
AcDbEntity
 67
     1
  8
1
390
0
  6
Continuous
 62
     7
100
AcDbLine
 10
3.657548
 20
6.941176
 30
0.0
 11
3.657548
 21
6.864693
 31
0.0
  0
LINE
  5
201
100
AcDbEntity
 67
     1
  8
1
390
0
  6
Continuous
 62
     7
100
AcDbLine
 10
3.655548
 20
6.941176
 30
0.0
 11
3.655548
 21
6.857229
 31
0.0
  0
LINE
  5
202
100
AcDbEntity
 67
     1
  8
1
390
0
  6
Continuous
 62
     7
100
AcDbLine
 10
3.653548
 20
6.941176
 30
0.0
 11
3.653548
 21
6.849764
 31
0.0
  0
LINE
  5
203
100
AcDbEntity
 67
     1
  8
1
390
0
  6
Continuous
 62
     7
100
AcDbLine
 10
3.651548
 20
6.941176
 30
0.0
 11
3.651548
 21
6.8423
 31
0.0
  0
LINE
  5
204
100
AcDbEntity
 67
     1
  8
1
390
0
  6
Continuous
 62
     7
100
AcDbLine
 10
3.649548
 20
6.941176
 30
0.0
 11
3.649548
 21
6.834836
 31
0.0
  0
LINE
  5
205
100
AcDbEntity
 67
     1
  8
1
390
0
  6
Continuous
 62
     7
100
AcDbLine
 10
3.647548
 20
6.941176
 30
0.0
 11
3.647548
 21
6.827372
 31
0.0
  0
LINE
  5
206
100
AcDbEntity
 67
     1
  8
1
390
0
  6
Continuous
 62
     7
100
AcDbLine
 10
3.645548
 20
6.941176
 30
0.0
 11
3.645548
 21
6.819908
 31
0.0
  0
LINE
  5
207
100
AcDbEntity
 67
     1
  8
1
390
0
  6
Continuous
 62
     7
100
AcDbLine
 10
3.611548
 20
6.941176
 30
0.0
 11
3.611548
 21
6.939334
 31
0.0
  0
LINE
  5
208
100
AcDbEntity
 67
     1
  8
1
390
0
  6
Continuous
 62
     7
100
AcDbLine
 10
3.611548
 20
6.941176
 30
0.0
 11
3.611548
 21
6.939334
 31
0.0
  0
LINE
  5
209
100
AcDbEntity
 67
     1
  8
1
390
0
  6
Continuous
 62
     7
100
AcDbLine
 10
3.613548
 20
6.941176
 30
0.0
 11
3.613548
 21
6.93187
 31
0.0
  0
LINE
  5
20A
100
AcDbEntity
 67
     1
  8
1
390
0
  6
Continuous
 62
     7
100
AcDbLine
 10
3.615548
 20
6.941176
 30
0.0
 11
3.615548
 21
6.924406
 31
0.0
  0
LINE
  5
20B
100
AcDbEntity
 67
     1
  8
1
390
0
  6
Continuous
 62
     7
100
AcDbLine
 10
3.617548
 20
6.941176
 30
0.0
 11
3.617548
 21
6.916942
 31
0.0
  0
LINE
  5
20C
100
AcDbEntity
 67
     1
  8
1
390
0
  6
Continuous
 62
     7
100
AcDbLine
 10
3.619548
 20
6.941176
 30
0.0
 11
3.619548
 21
6.909477
 31
0.0
  0
LINE
  5
20D
100
AcDbEntity
 67
     1
  8
1
390
0
  6
Continuous
 62
     7
100
AcDbLine
 10
3.621548
 20
6.941176
 30
0.0
 11
3.621548
 21
6.902013
 31
0.0
  0
LINE
  5
20E
100
AcDbEntity
 67
     1
  8
1
390
0
  6
Continuous
 62
     7
100
AcDbLine
 10
3.623548
 20
6.941176
 30
0.0
 11
3.623548
 21
6.894549
 31
0.0
  0
LINE
  5
20F
100
AcDbEntity
 67
     1
  8
1
390
0
  6
Continuous
 62
     7
100
AcDbLine
 10
3.625548
 20
6.941176
 30
0.0
 11
3.625548
 21
6.887085
 31
0.0
  0
LINE
  5
210
100
AcDbEntity
 67
     1
  8
1
390
0
  6
Continuous
 62
     7
100
AcDbLine
 10
3.627548
 20
6.941176
 30
0.0
 11
3.627548
 21
6.879621
 31
0.0
  0
LINE
  5
211
100
AcDbEntity
 67
     1
  8
1
390
0
  6
Continuous
 62
     7
100
AcDbLine
 10
3.629548
 20
6.941176
 30
0.0
 11
3.629548
 21
6.872157
 31
0.0
  0
LINE
  5
212
100
AcDbEntity
 67
     1
  8
1
390
0
  6
Continuous
 62
     7
100
AcDbLine
 10
3.631548
 20
6.941176
 30
0.0
 11
3.631548
 21
6.864693
 31
0.0
  0
LINE
  5
213
100
AcDbEntity
 67
     1
  8
1
390
0
  6
Continuous
 62
     7
100
AcDbLine
 10
3.633548
 20
6.941176
 30
0.0
 11
3.633548
 21
6.857229
 31
0.0
  0
LINE
  5
214
100
AcDbEntity
 67
     1
  8
1
390
0
  6
Continuous
 62
     7
100
AcDbLine
 10
3.635548
 20
6.941176
 30
0.0
 11
3.635548
 21
6.849764
 31
0.0
  0
LINE
  5
215
100
AcDbEntity
 67
     1
  8
1
390
0
  6
Continuous
 62
     7
100
AcDbLine
 10
3.637548
 20
6.941176
 30
0.0
 11
3.637548
 21
6.8423
 31
0.0
  0
LINE
  5
216
100
AcDbEntity
 67
     1
  8
1
390
0
  6
Continuous
 62
     7
100
AcDbLine
 10
3.639548
 20
6.941176
 30
0.0
 11
3.639548
 21
6.834836
 31
0.0
  0
LINE
  5
217
100
AcDbEntity
 67
     1
  8
1
390
0
  6
Continuous
 62
     7
100
AcDbLine
 10
3.641548
 20
6.941176
 30
0.0
 11
3.641548
 21
6.827372
 31
0.0
  0
LINE
  5
218
100
AcDbEntity
 67
     1
  8
1
390
0
  6
Continuous
 62
     7
100
AcDbLine
 10
3.643548
 20
6.941176
 30
0.0
 11
3.643548
 21
6.819908
 31
0.0
  0
LINE
  5
219
100
AcDbEntity
 67
     1
  8
1
390
0
  6
Continuous
 62
     7
100
AcDbLine
 10
10.642702
 20
2.877038
 30
0.0
 11
10.517995
 21
3.093039
 31
0.0
  0
LINE
  5
21A
100
AcDbEntity
 67
     1
  8
1
390
0
  6
Continuous
 62
     7
100
AcDbLine
 10
10.517995
 20
3.093039
 30
0.0
 11
10.393287
 21
2.877038
 31
0.0
  0
LINE
  5
21B
100
AcDbEntity
 67
     1
  8
1
390
0
  6
Continuous
 62
     7
100
AcDbLine
 10
10.393287
 20
2.877038
 30
0.0
 11
10.642702
 21
2.877038
 31
0.0
  0
LINE
  5
21C
100
AcDbEntity
 67
     1
  8
1
390
0
  6
Continuous
 62
     7
100
AcDbLine
 10
5.75369
 20
5.319412
 30
0.0
 11
5.75369
 21
2.998412
 31
0.0
  0
LINE
  5
21D
100
AcDbEntity
 67
     1
  8
1
390
0
  6
Continuous
 62
     7
100
AcDbLine
 10
10.642702
 20
3.117038
 30
0.0
 11
10.517995
 21
3.333039
 31
0.0
  0
LINE
  5
21E
100
AcDbEntity
 67
     1
  8
1
390
0
  6
Continuous
 62
     7
100
AcDbLine
 10
10.517995
 20
3.333039
 30
0.0
 11
10.393287
 21
3.117038
 31
0.0
  0
LINE
  5
21F
100
AcDbEntity
 67
     1
  8
1
390
0
  6
Continuous
 62
     7
100
AcDbLine
 10
10.393287
 20
3.117038
 30
0.0
 11
10.642702
 21
3.117038
 31
0.0
  0
LINE
  5
220
100
AcDbEntity
 67
     1
  8
1
390
0
  6
Continuous
 62
     7
100
AcDbLine
 10
1.105806
 20
3.86535
 30
0.0
 11
0.981098
 21
4.08135
 31
0.0
  0
LINE
  5
221
100
AcDbEntity
 67
     1
  8
1
390
0
  6
Continuous
 62
     7
100
AcDbLine
 10
0.981098
 20
4.08135
 30
0.0
 11
0.856391
 21
3.86535
 31
0.0
  0
LINE
  5
222
100
AcDbEntity
 67
     1
  8
1
390
0
  6
Continuous
 62
     7
100
AcDbLine
 10
0.856391
 20
3.86535
 30
0.0
 11
1.105806
 21
3.86535
 31
0.0
  0
LINE
  5
223
100
AcDbEntity
 67
     1
  8
1
390
0
  6
Continuous
 62
     7
100
AcDbLine
 10
1.571663
 20
6.729434
 30
0.0
 11
1.587155
 21
6.727354
 31
0.0
  0
LINE
  5
224
100
AcDbEntity
 67
     1
  8
1
390
0
  6
Continuous
 62
     7
100
AcDbLine
 10
1.618279
 20
6.724614
 30
0.0
 11
1.633875
 21
6.723589
 31
0.0
  0
LINE
  5
225
100
AcDbEntity
 67
     1
  8
1
390
0
  6
Continuous
 62
     7
100
AcDbLine
 10
1.594054
 20
6.748676
 30
0.0
 11
1.588434
 21
6.743891
 31
0.0
  0
LINE
  5
226
100
AcDbEntity
 67
     1
  8
1
390
0
  6
Continuous
 62
     7
100
AcDbLine
 10
1.577195
 20
6.73432
 30
0.0
 11
1.575631
 21
6.732988
 31
0.0
  0
LINE
  5
227
100
AcDbEntity
 67
     1
  8
1
390
0
  6
Continuous
 62
     7
100
AcDbLine
 10
1.575631
 20
6.732988
 30
0.0
 11
1.571663
 21
6.729434
 31
0.0
  0
LINE
  5
228
100
AcDbEntity
 67
     1
  8
1
390
0
  6
Continuous
 62
     7
100
AcDbLine
 10
1.625884
 20
6.748676
 30
0.0
 11
1.617926
 21
6.748676
 31
0.0
  0
LINE
  5
229
100
AcDbEntity
 67
     1
  8
1
390
0
  6
Continuous
 62
     7
100
AcDbLine
 10
1.602012
 20
6.748676
 30
0.0
 11
1.594054
 21
6.748676
 31
0.0
  0
LINE
  5
22A
100
AcDbEntity
 67
     1
  8
1
390
0
  6
Continuous
 62
     7
100
AcDbLine
 10
1.594054
 20
6.760676
 30
0.0
 11
1.588434
 21
6.765461
 31
0.0
  0
LINE
  5
22B
100
AcDbEntity
 67
     1
  8
1
390
0
  6
Continuous
 62
     7
100
AcDbLine
 10
1.577195
 20
6.775033
 30
0.0
 11
1.575631
 21
6.776364
 31
0.0
  0
LINE
  5
22C
100
AcDbEntity
 67
     1
  8
1
390
0
  6
Continuous
 62
     7
100
AcDbLine
 10
1.575631
 20
6.776364
 30
0.0
 11
1.571663
 21
6.779919
 31
0.0
  0
LINE
  5
22D
100
AcDbEntity
 67
     1
  8
1
390
0
  6
Continuous
 62
     7
100
AcDbLine
 10
1.571663
 20
6.779919
 30
0.0
 11
1.587155
 21
6.781999
 31
0.0
  0
LINE
  5
22E
100
AcDbEntity
 67
     1
  8
1
390
0
  6
Continuous
 62
     7
100
AcDbLine
 10
1.618279
 20
6.784738
 30
0.0
 11
1.633875
 21
6.785763
 31
0.0
  0
LINE
  5
22F
100
AcDbEntity
 67
     1
  8
1
390
0
  6
Continuous
 62
     7
100
AcDbLine
 10
1.625884
 20
6.760676
 30
0.0
 11
1.617926
 21
6.760676
 31
0.0
  0
LINE
  5
230
100
AcDbEntity
 67
     1
  8
1
390
0
  6
Continuous
 62
     7
100
AcDbLine
 10
1.602012
 20
6.760676
 30
0.0
 11
1.594054
 21
6.760676
 31
0.0
  0
LINE
  5
231
100
AcDbEntity
 67
     1
  8
1
390
0
  6
Continuous
 62
     7
100
AcDbLine
 10
1.782136
 20
6.760676
 30
0.0
 11
1.774179
 21
6.760676
 31
0.0
  0
LINE
  5
232
100
AcDbEntity
 67
     1
  8
1
390
0
  6
Continuous
 62
     7
100
AcDbLine
 10
1.758264
 20
6.760676
 30
0.0
 11
1.750307
 21
6.760676
 31
0.0
  0
LINE
  5
233
100
AcDbEntity
 67
     1
  8
1
390
0
  6
Continuous
 62
     7
100
AcDbLine
 10
1.782136
 20
6.748676
 30
0.0
 11
1.774179
 21
6.748676
 31
0.0
  0
LINE
  5
234
100
AcDbEntity
 67
     1
  8
1
390
0
  6
Continuous
 62
     7
100
AcDbLine
 10
1.758264
 20
6.748676
 30
0.0
 11
1.750307
 21
6.748676
 31
0.0
  0
LINE
  5
235
100
AcDbEntity
 67
     1
  8
1
390
0
  6
Continuous
 62
     7
100
AcDbLine
 10
1.742316
 20
6.723589
 30
0.0
 11
1.757912
 21
6.724614
 31
0.0
  0
LINE
  5
236
100
AcDbEntity
 67
     1
  8
1
390
0
  6
Continuous
 62
     7
100
AcDbLine
 10
1.789036
 20
6.727354
 30
0.0
 11
1.804527
 21
6.729434
 31
0.0
  0
LINE
  5
237
100
AcDbEntity
 67
     1
  8
1
390
0
  6
Continuous
 62
     7
100
AcDbLine
 10
1.804527
 20
6.729434
 30
0.0
 11
1.798929
 21
6.734244
 31
0.0
  0
LINE
  5
238
100
AcDbEntity
 67
     1
  8
1
390
0
  6
Continuous
 62
     7
100
AcDbLine
 10
1.787734
 20
6.743865
 30
0.0
 11
1.782136
 21
6.748676
 31
0.0
  0
LINE
  5
239
100
AcDbEntity
 67
     1
  8
1
390
0
  6
Continuous
 62
     7
100
AcDbLine
 10
1.742316
 20
6.785763
 30
0.0
 11
1.757912
 21
6.784738
 31
0.0
  0
LINE
  5
23A
100
AcDbEntity
 67
     1
  8
1
390
0
  6
Continuous
 62
     7
100
AcDbLine
 10
1.789036
 20
6.781999
 30
0.0
 11
1.804527
 21
6.779919
 31
0.0
  0
LINE
  5
23B
100
AcDbEntity
 67
     1
  8
1
390
0
  6
Continuous
 62
     7
100
AcDbLine
 10
1.804527
 20
6.779919
 30
0.0
 11
1.798929
 21
6.775108
 31
0.0
  0
LINE
  5
23C
100
AcDbEntity
 67
     1
  8
1
390
0
  6
Continuous
 62
     7
100
AcDbLine
 10
1.787734
 20
6.765487
 30
0.0
 11
1.782136
 21
6.760676
 31
0.0
  0
LINE
  5
23D
100
AcDbEntity
 67
     1
  8
1
390
0
  6
Continuous
 62
     7
100
AcDbLine
 10
1.682095
 20
6.660635
 30
0.0
 11
1.682095
 21
6.668592
 31
0.0
  0
LINE
  5
23E
100
AcDbEntity
 67
     1
  8
1
390
0
  6
Continuous
 62
     7
100
AcDbLine
 10
1.682095
 20
6.684507
 30
0.0
 11
1.682095
 21
6.692465
 31
0.0
  0
LINE
  5
23F
100
AcDbEntity
 67
     1
  8
1
390
0
  6
Continuous
 62
     7
100
AcDbLine
 10
1.694095
 20
6.660635
 30
0.0
 11
1.694095
 21
6.668592
 31
0.0
  0
LINE
  5
240
100
AcDbEntity
 67
     1
  8
1
390
0
  6
Continuous
 62
     7
100
AcDbLine
 10
1.694095
 20
6.684507
 30
0.0
 11
1.694095
 21
6.692465
 31
0.0
  0
LINE
  5
241
100
AcDbEntity
 67
     1
  8
1
390
0
  6
Continuous
 62
     7
100
AcDbLine
 10
1.688095
 20
6.661176
 30
0.0
 11
1.688789
 21
6.661174
 31
0.0
  0
LINE
  5
242
100
AcDbEntity
 67
     1
  8
1
390
0
  6
Continuous
 62
     7
100
AcDbLine
 10
1.688789
 20
6.661174
 30
0.0
 11
1.689619
 21
6.661159
 31
0.0
  0
LINE
  5
243
100
AcDbEntity
 67
     1
  8
1
390
0
  6
Continuous
 62
     7
100
AcDbLine
 10
1.692663
 20
6.661019
 30
0.0
 11
1.693509
 21
6.660915
 31
0.0
  0
LINE
  5
244
100
AcDbEntity
 67
     1
  8
1
390
0
  6
Continuous
 62
     7
100
AcDbLine
 10
1.693509
 20
6.660915
 30
0.0
 11
1.694059
 21
6.660713
 31
0.0
  0
LINE
  5
245
100
AcDbEntity
 67
     1
  8
1
390
0
  6
Continuous
 62
     7
100
AcDbLine
 10
1.694059
 20
6.660713
 30
0.0
 11
1.694095
 21
6.660635
 31
0.0
  0
LINE
  5
246
100
AcDbEntity
 67
     1
  8
1
390
0
  6
Continuous
 62
     7
100
AcDbLine
 10
1.682095
 20
6.660635
 30
0.0
 11
1.682431
 21
6.660856
 31
0.0
  0
LINE
  5
247
100
AcDbEntity
 67
     1
  8
1
390
0
  6
Continuous
 62
     7
100
AcDbLine
 10
1.682431
 20
6.660856
 30
0.0
 11
1.683411
 21
6.661018
 31
0.0
  0
LINE
  5
248
100
AcDbEntity
 67
     1
  8
1
390
0
  6
Continuous
 62
     7
100
AcDbLine
 10
1.683411
 20
6.661018
 30
0.0
 11
1.683536
 21
6.661027
 31
0.0
  0
LINE
  5
249
100
AcDbEntity
 67
     1
  8
1
390
0
  6
Continuous
 62
     7
100
AcDbLine
 10
1.686574
 20
6.661162
 30
0.0
 11
1.68678
 21
6.661168
 31
0.0
  0
LINE
  5
24A
100
AcDbEntity
 67
     1
  8
1
390
0
  6
Continuous
 62
     7
100
AcDbLine
 10
1.68678
 20
6.661168
 30
0.0
 11
1.688095
 21
6.661176
 31
0.0
  0
LINE
  5
24B
100
AcDbEntity
 67
     1
  8
1
390
0
  6
Continuous
 62
     7
100
AcDbLine
 10
1.657008
 20
6.700456
 30
0.0
 11
1.658033
 21
6.684859
 31
0.0
  0
LINE
  5
24C
100
AcDbEntity
 67
     1
  8
1
390
0
  6
Continuous
 62
     7
100
AcDbLine
 10
1.660773
 20
6.653736
 30
0.0
 11
1.662853
 21
6.638244
 31
0.0
  0
LINE
  5
24D
100
AcDbEntity
 67
     1
  8
1
390
0
  6
Continuous
 62
     7
100
AcDbLine
 10
1.662853
 20
6.638244
 30
0.0
 11
1.667663
 21
6.643842
 31
0.0
  0
LINE
  5
24E
100
AcDbEntity
 67
     1
  8
1
390
0
  6
Continuous
 62
     7
100
AcDbLine
 10
1.677285
 20
6.655037
 30
0.0
 11
1.682095
 21
6.660635
 31
0.0
  0
LINE
  5
24F
100
AcDbEntity
 67
     1
  8
1
390
0
  6
Continuous
 62
     7
100
AcDbLine
 10
1.719182
 20
6.700456
 30
0.0
 11
1.718157
 21
6.684859
 31
0.0
  0
LINE
  5
250
100
AcDbEntity
 67
     1
  8
1
390
0
  6
Continuous
 62
     7
100
AcDbLine
 10
1.715418
 20
6.653736
 30
0.0
 11
1.713338
 21
6.638244
 31
0.0
  0
LINE
  5
251
100
AcDbEntity
 67
     1
  8
1
390
0
  6
Continuous
 62
     7
100
AcDbLine
 10
1.713338
 20
6.638244
 30
0.0
 11
1.708527
 21
6.643842
 31
0.0
  0
LINE
  5
252
100
AcDbEntity
 67
     1
  8
1
390
0
  6
Continuous
 62
     7
100
AcDbLine
 10
1.698906
 20
6.655037
 30
0.0
 11
1.694095
 21
6.660635
 31
0.0
  0
LINE
  5
253
100
AcDbEntity
 67
     1
  8
1
390
0
  6
Continuous
 62
     7
100
AcDbLine
 10
1.694095
 20
6.816887
 30
0.0
 11
1.694095
 21
6.824845
 31
0.0
  0
LINE
  5
254
100
AcDbEntity
 67
     1
  8
1
390
0
  6
Continuous
 62
     7
100
AcDbLine
 10
1.694095
 20
6.84076
 30
0.0
 11
1.694095
 21
6.848717
 31
0.0
  0
LINE
  5
255
100
AcDbEntity
 67
     1
  8
1
390
0
  6
Continuous
 62
     7
100
AcDbLine
 10
1.682095
 20
6.816887
 30
0.0
 11
1.682095
 21
6.824845
 31
0.0
  0
LINE
  5
256
100
AcDbEntity
 67
     1
  8
1
390
0
  6
Continuous
 62
     7
100
AcDbLine
 10
1.682095
 20
6.84076
 30
0.0
 11
1.682095
 21
6.848717
 31
0.0
  0
LINE
  5
257
100
AcDbEntity
 67
     1
  8
1
390
0
  6
Continuous
 62
     7
100
AcDbLine
 10
1.688095
 20
6.848176
 30
0.0
 11
1.687402
 21
6.848178
 31
0.0
  0
LINE
  5
258
100
AcDbEntity
 67
     1
  8
1
390
0
  6
Continuous
 62
     7
100
AcDbLine
 10
1.687402
 20
6.848178
 30
0.0
 11
1.686571
 21
6.848193
 31
0.0
  0
LINE
  5
259
100
AcDbEntity
 67
     1
  8
1
390
0
  6
Continuous
 62
     7
100
AcDbLine
 10
1.683527
 20
6.848333
 30
0.0
 11
1.682681
 21
6.848437
 31
0.0
  0
LINE
  5
25A
100
AcDbEntity
 67
     1
  8
1
390
0
  6
Continuous
 62
     7
100
AcDbLine
 10
1.682681
 20
6.848437
 30
0.0
 11
1.682131
 21
6.848639
 31
0.0
  0
LINE
  5
25B
100
AcDbEntity
 67
     1
  8
1
390
0
  6
Continuous
 62
     7
100
AcDbLine
 10
1.682131
 20
6.848639
 30
0.0
 11
1.682095
 21
6.848717
 31
0.0
  0
LINE
  5
25C
100
AcDbEntity
 67
     1
  8
1
390
0
  6
Continuous
 62
     7
100
AcDbLine
 10
1.694095
 20
6.848717
 30
0.0
 11
1.698881
 21
6.854337
 31
0.0
  0
LINE
  5
25D
100
AcDbEntity
 67
     1
  8
1
390
0
  6
Continuous
 62
     7
100
AcDbLine
 10
1.708452
 20
6.865576
 30
0.0
 11
1.709784
 21
6.867141
 31
0.0
  0
LINE
  5
25E
100
AcDbEntity
 67
     1
  8
1
390
0
  6
Continuous
 62
     7
100
AcDbLine
 10
1.709784
 20
6.867141
 30
0.0
 11
1.713338
 21
6.871108
 31
0.0
  0
LINE
  5
25F
100
AcDbEntity
 67
     1
  8
1
390
0
  6
Continuous
 62
     7
100
AcDbLine
 10
1.713338
 20
6.871108
 30
0.0
 11
1.715418
 21
6.855617
 31
0.0
  0
LINE
  5
260
100
AcDbEntity
 67
     1
  8
1
390
0
  6
Continuous
 62
     7
100
AcDbLine
 10
1.718157
 20
6.824493
 30
0.0
 11
1.719182
 21
6.808897
 31
0.0
  0
LINE
  5
261
100
AcDbEntity
 67
     1
  8
1
390
0
  6
Continuous
 62
     7
100
AcDbLine
 10
1.662853
 20
6.871108
 30
0.0
 11
1.660773
 21
6.855617
 31
0.0
  0
LINE
  5
262
100
AcDbEntity
 67
     1
  8
1
390
0
  6
Continuous
 62
     7
100
AcDbLine
 10
1.658033
 20
6.824493
 30
0.0
 11
1.657008
 21
6.808897
 31
0.0
  0
LINE
  5
263
100
AcDbEntity
 67
     1
  8
1
390
0
  6
Continuous
 62
     7
100
AcDbLine
 10
1.682095
 20
6.848717
 30
0.0
 11
1.67731
 21
6.854337
 31
0.0
  0
LINE
  5
264
100
AcDbEntity
 67
     1
  8
1
390
0
  6
Continuous
 62
     7
100
AcDbLine
 10
1.667739
 20
6.865576
 30
0.0
 11
1.666407
 21
6.867141
 31
0.0
  0
LINE
  5
265
100
AcDbEntity
 67
     1
  8
1
390
0
  6
Continuous
 62
     7
100
AcDbLine
 10
1.666407
 20
6.867141
 30
0.0
 11
1.662853
 21
6.871108
 31
0.0
  0
LINE
  5
266
100
AcDbEntity
 67
     1
  8
1
390
0
  6
Continuous
 62
     7
100
AcDbLine
 10
1.662853
 20
6.638244
 30
0.0
 11
1.631036
 21
6.650092
 31
0.0
  0
LINE
  5
267
100
AcDbEntity
 67
     1
  8
1
390
0
  6
Continuous
 62
     7
100
AcDbLine
 10
1.583511
 20
6.697617
 30
0.0
 11
1.571663
 21
6.729434
 31
0.0
  0
LINE
  5
268
100
AcDbEntity
 67
     1
  8
1
390
0
  6
Continuous
 62
     7
100
AcDbLine
 10
1.571663
 20
6.779919
 30
0.0
 11
1.583511
 21
6.811736
 31
0.0
  0
LINE
  5
269
100
AcDbEntity
 67
     1
  8
1
390
0
  6
Continuous
 62
     7
100
AcDbLine
 10
1.631036
 20
6.85926
 30
0.0
 11
1.662853
 21
6.871108
 31
0.0
  0
LINE
  5
26A
100
AcDbEntity
 67
     1
  8
1
390
0
  6
Continuous
 62
     7
100
AcDbLine
 10
1.804527
 20
6.729434
 30
0.0
 11
1.792679
 21
6.697617
 31
0.0
  0
LINE
  5
26B
100
AcDbEntity
 67
     1
  8
1
390
0
  6
Continuous
 62
     7
100
AcDbLine
 10
1.745155
 20
6.650092
 30
0.0
 11
1.713338
 21
6.638244
 31
0.0
  0
LINE
  5
26C
100
AcDbEntity
 67
     1
  8
1
390
0
  6
Continuous
 62
     7
100
AcDbLine
 10
1.713338
 20
6.871108
 30
0.0
 11
1.745155
 21
6.85926
 31
0.0
  0
LINE
  5
26D
100
AcDbEntity
 67
     1
  8
1
390
0
  6
Continuous
 62
     7
100
AcDbLine
 10
1.792679
 20
6.811736
 30
0.0
 11
1.804527
 21
6.779919
 31
0.0
  0
LINE
  5
26E
100
AcDbEntity
 67
     1
  8
1
390
0
  6
Continuous
 62
     7
100
AcDbLine
 10
1.784595
 20
6.754676
 30
0.0
 11
1.780844
 21
6.779564
 31
0.0
  0
LINE
  5
26F
100
AcDbEntity
 67
     1
  8
1
390
0
  6
Continuous
 62
     7
100
AcDbLine
 10
1.755599
 20
6.822216
 30
0.0
 11
1.748262
 21
6.830123
 31
0.0
  0
LINE
  5
270
100
AcDbEntity
 67
     1
  8
1
390
0
  6
Continuous
 62
     7
100
AcDbLine
 10
1.748262
 20
6.830123
 30
0.0
 11
1.723351
 21
6.844505
 31
0.0
  0
LINE
  5
271
100
AcDbEntity
 67
     1
  8
1
390
0
  6
Continuous
 62
     7
100
AcDbLine
 10
1.723351
 20
6.844505
 30
0.0
 11
1.712834
 21
6.846906
 31
0.0
  0
LINE
  5
272
100
AcDbEntity
 67
     1
  8
1
390
0
  6
Continuous
 62
     7
100
AcDbLine
 10
1.663275
 20
6.847443
 30
0.0
 11
1.639845
 21
6.838248
 31
0.0
  0
LINE
  5
273
100
AcDbEntity
 67
     1
  8
1
390
0
  6
Continuous
 62
     7
100
AcDbLine
 10
1.639845
 20
6.838248
 30
0.0
 11
1.620167
 21
6.822555
 31
0.0
  0
LINE
  5
274
100
AcDbEntity
 67
     1
  8
1
390
0
  6
Continuous
 62
     7
100
AcDbLine
 10
1.595853
 20
6.779366
 30
0.0
 11
1.592673
 21
6.769059
 31
0.0
  0
LINE
  5
275
100
AcDbEntity
 67
     1
  8
1
390
0
  6
Continuous
 62
     7
100
AcDbLine
 10
1.592673
 20
6.769059
 30
0.0
 11
1.592673
 21
6.740294
 31
0.0
  0
LINE
  5
276
100
AcDbEntity
 67
     1
  8
1
390
0
  6
Continuous
 62
     7
100
AcDbLine
 10
1.592673
 20
6.740294
 30
0.0
 11
1.595853
 21
6.729986
 31
0.0
  0
LINE
  5
277
100
AcDbEntity
 67
     1
  8
1
390
0
  6
Continuous
 62
     7
100
AcDbLine
 10
1.620167
 20
6.686798
 30
0.0
 11
1.639845
 21
6.671104
 31
0.0
  0
LINE
  5
278
100
AcDbEntity
 67
     1
  8
1
390
0
  6
Continuous
 62
     7
100
AcDbLine
 10
1.639845
 20
6.671104
 30
0.0
 11
1.663275
 21
6.661909
 31
0.0
  0
LINE
  5
279
100
AcDbEntity
 67
     1
  8
1
390
0
  6
Continuous
 62
     7
100
AcDbLine
 10
1.712834
 20
6.662446
 30
0.0
 11
1.723351
 21
6.664847
 31
0.0
  0
LINE
  5
27A
100
AcDbEntity
 67
     1
  8
1
390
0
  6
Continuous
 62
     7
100
AcDbLine
 10
1.723351
 20
6.664847
 30
0.0
 11
1.748262
 21
6.679229
 31
0.0
  0
LINE
  5
27B
100
AcDbEntity
 67
     1
  8
1
390
0
  6
Continuous
 62
     7
100
AcDbLine
 10
1.748262
 20
6.679229
 30
0.0
 11
1.755599
 21
6.687137
 31
0.0
  0
LINE
  5
27C
100
AcDbEntity
 67
     1
  8
1
390
0
  6
Continuous
 62
     7
100
AcDbLine
 10
1.780844
 20
6.729788
 30
0.0
 11
1.784595
 21
6.754676
 31
0.0
  0
LINE
  5
27D
100
AcDbEntity
 67
     1
  8
1
390
0
  6
Continuous
 62
     7
100
AcDbLine
 10
1.816476
 20
6.754676
 30
0.0
 11
1.813325
 21
6.779619
 31
0.0
  0
LINE
  5
27E
100
AcDbEntity
 67
     1
  8
1
390
0
  6
Continuous
 62
     7
100
AcDbLine
 10
1.794094
 20
6.825473
 30
0.0
 11
1.781681
 21
6.842559
 31
0.0
  0
LINE
  5
27F
100
AcDbEntity
 67
     1
  8
1
390
0
  6
Continuous
 62
     7
100
AcDbLine
 10
1.781681
 20
6.842559
 30
0.0
 11
1.75921
 21
6.861148
 31
0.0
  0
LINE
  5
280
100
AcDbEntity
 67
     1
  8
1
390
0
  6
Continuous
 62
     7
100
AcDbLine
 10
1.71295
 20
6.8796
 30
0.0
 11
1.696156
 21
6.882803
 31
0.0
  0
LINE
  5
281
100
AcDbEntity
 67
     1
  8
1
390
0
  6
Continuous
 62
     7
100
AcDbLine
 10
1.696156
 20
6.882803
 30
0.0
 11
1.664039
 21
6.880783
 31
0.0
  0
LINE
  5
282
100
AcDbEntity
 67
     1
  8
1
390
0
  6
Continuous
 62
     7
100
AcDbLine
 10
1.664039
 20
6.880783
 30
0.0
 11
1.663083
 21
6.880472
 31
0.0
  0
LINE
  5
283
100
AcDbEntity
 67
     1
  8
1
390
0
  6
Continuous
 62
     7
100
AcDbLine
 10
1.617301
 20
6.8606
 30
0.0
 11
1.606262
 21
6.853595
 31
0.0
  0
LINE
  5
284
100
AcDbEntity
 67
     1
  8
1
390
0
  6
Continuous
 62
     7
100
AcDbLine
 10
1.606262
 20
6.853595
 30
0.0
 11
1.584233
 21
6.830136
 31
0.0
  0
LINE
  5
285
100
AcDbEntity
 67
     1
  8
1
390
0
  6
Continuous
 62
     7
100
AcDbLine
 10
1.584233
 20
6.830136
 30
0.0
 11
1.581811
 21
6.82573
 31
0.0
  0
LINE
  5
286
100
AcDbEntity
 67
     1
  8
1
390
0
  6
Continuous
 62
     7
100
AcDbLine
 10
1.562978
 20
6.779533
 30
0.0
 11
1.560727
 21
6.770766
 31
0.0
  0
LINE
  5
287
100
AcDbEntity
 67
     1
  8
1
390
0
  6
Continuous
 62
     7
100
AcDbLine
 10
1.560727
 20
6.770766
 30
0.0
 11
1.560727
 21
6.738586
 31
0.0
  0
LINE
  5
288
100
AcDbEntity
 67
     1
  8
1
390
0
  6
Continuous
 62
     7
100
AcDbLine
 10
1.560727
 20
6.738586
 30
0.0
 11
1.562978
 21
6.729819
 31
0.0
  0
LINE
  5
289
100
AcDbEntity
 67
     1
  8
1
390
0
  6
Continuous
 62
     7
100
AcDbLine
 10
1.581811
 20
6.683622
 30
0.0
 11
1.584233
 21
6.679216
 31
0.0
  0
LINE
  5
28A
100
AcDbEntity
 67
     1
  8
1
390
0
  6
Continuous
 62
     7
100
AcDbLine
 10
1.584233
 20
6.679216
 30
0.0
 11
1.606262
 21
6.655757
 31
0.0
  0
LINE
  5
28B
100
AcDbEntity
 67
     1
  8
1
390
0
  6
Continuous
 62
     7
100
AcDbLine
 10
1.606262
 20
6.655757
 30
0.0
 11
1.617301
 21
6.648752
 31
0.0
  0
LINE
  5
28C
100
AcDbEntity
 67
     1
  8
1
390
0
  6
Continuous
 62
     7
100
AcDbLine
 10
1.663083
 20
6.62888
 30
0.0
 11
1.664039
 21
6.628569
 31
0.0
  0
LINE
  5
28D
100
AcDbEntity
 67
     1
  8
1
390
0
  6
Continuous
 62
     7
100
AcDbLine
 10
1.664039
 20
6.628569
 30
0.0
 11
1.696156
 21
6.626549
 31
0.0
  0
LINE
  5
28E
100
AcDbEntity
 67
     1
  8
1
390
0
  6
Continuous
 62
     7
100
AcDbLine
 10
1.696156
 20
6.626549
 30
0.0
 11
1.71295
 21
6.629752
 31
0.0
  0
LINE
  5
28F
100
AcDbEntity
 67
     1
  8
1
390
0
  6
Continuous
 62
     7
100
AcDbLine
 10
1.75921
 20
6.648204
 30
0.0
 11
1.781681
 21
6.666793
 31
0.0
  0
LINE
  5
290
100
AcDbEntity
 67
     1
  8
1
390
0
  6
Continuous
 62
     7
100
AcDbLine
 10
1.781681
 20
6.666793
 30
0.0
 11
1.794094
 21
6.683879
 31
0.0
  0
LINE
  5
291
100
AcDbEntity
 67
     1
  8
1
390
0
  6
Continuous
 62
     7
100
AcDbLine
 10
1.813325
 20
6.729733
 30
0.0
 11
1.816476
 21
6.754676
 31
0.0
  0
LINE
  5
292
100
AcDbEntity
 67
     1
  8
1
390
0
  6
Continuous
 62
     7
100
AcDbLine
 10
4.098149
 20
6.973676
 30
0.0
 11
4.071721
 21
6.972753
 31
0.0
  0
LINE
  5
293
100
AcDbEntity
 67
     1
  8
1
390
0
  6
Continuous
 62
     7
100
AcDbLine
 10
4.071721
 20
6.536599
 30
0.0
 11
4.098149
 21
6.535676
 31
0.0
  0
LINE
  5
294
100
AcDbEntity
 67
     1
  8
1
390
0
  6
Continuous
 62
     7
100
AcDbLine
 10
4.042034
 20
6.94555
 30
0.0
 11
4.034253
 21
6.882176
 31
0.0
  0
LINE
  5
295
100
AcDbEntity
 67
     1
  8
1
390
0
  6
Continuous
 62
     7
100
AcDbLine
 10
4.034253
 20
6.627176
 30
0.0
 11
4.042034
 21
6.563802
 31
0.0
  0
LINE
  5
296
100
AcDbEntity
 67
     1
  8
1
390
0
  6
Continuous
 62
     7
100
AcDbLine
 10
4.059474
 20
6.883057
 30
0.0
 11
4.053168
 21
6.882837
 31
0.0
  0
LINE
  5
297
100
AcDbEntity
 67
     1
  8
1
390
0
  6
Continuous
 62
     7
100
AcDbLine
 10
4.040558
 20
6.882396
 30
0.0
 11
4.034253
 21
6.882176
 31
0.0
  0
LINE
  5
298
100
AcDbEntity
 67
     1
  8
1
390
0
  6
Continuous
 62
     7
100
AcDbLine
 10
4.034253
 20
6.627176
 30
0.0
 11
4.040558
 21
6.626956
 31
0.0
  0
LINE
  5
299
100
AcDbEntity
 67
     1
  8
1
390
0
  6
Continuous
 62
     7
100
AcDbLine
 10
4.053168
 20
6.626515
 30
0.0
 11
4.059474
 21
6.626296
 31
0.0
  0
LINE
  5
29A
100
AcDbEntity
 67
     1
  8
1
390
0
  6
Continuous
 62
     7
100
AcDbLine
 10
4.101149
 20
6.661176
 30
0.0
 11
4.196149
 21
6.661176
 31
0.0
  0
LINE
  5
29B
100
AcDbEntity
 67
     1
  8
1
390
0
  6
Continuous
 62
     7
100
AcDbLine
 10
4.196149
 20
6.848176
 30
0.0
 11
4.101149
 21
6.848176
 31
0.0
  0
LINE
  5
29C
100
AcDbEntity
 67
     1
  8
1
390
0
  6
Continuous
 62
     7
100
AcDbLine
 10
4.029648
 20
6.844676
 30
0.0
 11
4.026149
 21
6.816176
 31
0.0
  0
LINE
  5
29D
100
AcDbEntity
 67
     1
  8
1
390
0
  6
Continuous
 62
     7
100
AcDbLine
 10
4.026149
 20
6.693176
 30
0.0
 11
4.029648
 21
6.664676
 31
0.0
  0
LINE
  5
29E
100
AcDbEntity
 67
     1
  8
1
390
0
  6
Continuous
 62
     7
100
AcDbLine
 10
3.575149
 20
6.693176
 30
0.0
 11
4.026149
 21
6.693176
 31
0.0
  0
LINE
  5
29F
100
AcDbEntity
 67
     1
  8
1
390
0
  6
Continuous
 62
     7
100
AcDbLine
 10
4.026149
 20
6.816176
 30
0.0
 11
3.575149
 21
6.816176
 31
0.0
  0
LINE
  5
2A0
100
AcDbEntity
 67
     1
  8
1
390
0
  6
Continuous
 62
     7
100
AcDbLine
 10
4.059474
 20
6.626296
 30
0.0
 11
4.061297
 21
6.626996
 31
0.0
  0
LINE
  5
2A1
100
AcDbEntity
 67
     1
  8
1
390
0
  6
Continuous
 62
     7
100
AcDbLine
 10
4.063885
 20
6.629494
 30
0.0
 11
4.064648
 21
6.631292
 31
0.0
  0
LINE
  5
2A2
100
AcDbEntity
 67
     1
  8
1
390
0
  6
Continuous
 62
     7
100
AcDbLine
 10
4.064648
 20
6.87806
 30
0.0
 11
4.063885
 21
6.879858
 31
0.0
  0
LINE
  5
2A3
100
AcDbEntity
 67
     1
  8
1
390
0
  6
Continuous
 62
     7
100
AcDbLine
 10
4.061297
 20
6.882357
 30
0.0
 11
4.059474
 21
6.883057
 31
0.0
  0
LINE
  5
2A4
100
AcDbEntity
 67
     1
  8
1
390
0
  6
Continuous
 62
     7
100
AcDbLine
 10
4.202149
 20
6.760676
 30
0.0
 11
4.200169
 21
6.76034
 31
0.0
  0
LINE
  5
2A5
100
AcDbEntity
 67
     1
  8
1
390
0
  6
Continuous
 62
     7
100
AcDbLine
 10
4.200169
 20
6.76034
 30
0.0
 11
4.198399
 21
6.75936
 31
0.0
  0
LINE
  5
2A6
100
AcDbEntity
 67
     1
  8
1
390
0
  6
Continuous
 62
     7
100
AcDbLine
 10
4.198399
 20
6.75936
 30
0.0
 11
4.197059
 21
6.757853
 31
0.0
  0
LINE
  5
2A7
100
AcDbEntity
 67
     1
  8
1
390
0
  6
Continuous
 62
     7
100
AcDbLine
 10
4.197059
 20
6.757853
 30
0.0
 11
4.196295
 21
6.755991
 31
0.0
  0
LINE
  5
2A8
100
AcDbEntity
 67
     1
  8
1
390
0
  6
Continuous
 62
     7
100
AcDbLine
 10
4.196295
 20
6.755991
 30
0.0
 11
4.196149
 21
6.754676
 31
0.0
  0
LINE
  5
2A9
100
AcDbEntity
 67
     1
  8
1
390
0
  6
Continuous
 62
     7
100
AcDbLine
 10
4.196149
 20
6.754676
 30
0.0
 11
4.196189
 21
6.753983
 31
0.0
  0
LINE
  5
2AA
100
AcDbEntity
 67
     1
  8
1
390
0
  6
Continuous
 62
     7
100
AcDbLine
 10
4.196189
 20
6.753983
 30
0.0
 11
4.196753
 21
6.752052
 31
0.0
  0
LINE
  5
2AB
100
AcDbEntity
 67
     1
  8
1
390
0
  6
Continuous
 62
     7
100
AcDbLine
 10
4.196753
 20
6.752052
 30
0.0
 11
4.197922
 21
6.750418
 31
0.0
  0
LINE
  5
2AC
100
AcDbEntity
 67
     1
  8
1
390
0
  6
Continuous
 62
     7
100
AcDbLine
 10
4.197922
 20
6.750418
 30
0.0
 11
4.199563
 21
6.749262
 31
0.0
  0
LINE
  5
2AD
100
AcDbEntity
 67
     1
  8
1
390
0
  6
Continuous
 62
     7
100
AcDbLine
 10
4.199563
 20
6.749262
 30
0.0
 11
4.201491
 21
6.748712
 31
0.0
  0
LINE
  5
2AE
100
AcDbEntity
 67
     1
  8
1
390
0
  6
Continuous
 62
     7
100
AcDbLine
 10
4.201491
 20
6.748712
 30
0.0
 11
4.202149
 21
6.748676
 31
0.0
  0
LINE
  5
2AF
100
AcDbEntity
 67
     1
  8
1
390
0
  6
Continuous
 62
     7
100
AcDbLine
 10
4.202149
 20
6.748676
 30
0.0
 11
4.20182
 21
6.748732
 31
0.0
  0
LINE
  5
2B0
100
AcDbEntity
 67
     1
  8
1
390
0
  6
Continuous
 62
     7
100
AcDbLine
 10
4.201164
 20
6.748843
 30
0.0
 11
4.200836
 21
6.748899
 31
0.0
  0
LINE
  5
2B1
100
AcDbEntity
 67
     1
  8
1
390
0
  6
Continuous
 62
     7
100
AcDbLine
 10
4.19628
 20
6.753672
 30
0.0
 11
4.19626
 21
6.754037
 31
0.0
  0
LINE
  5
2B2
100
AcDbEntity
 67
     1
  8
1
390
0
  6
Continuous
 62
     7
100
AcDbLine
 10
4.19622
 20
6.754769
 30
0.0
 11
4.1962
 21
6.755136
 31
0.0
  0
LINE
  5
2B3
100
AcDbEntity
 67
     1
  8
1
390
0
  6
Continuous
 62
     7
100
AcDbLine
 10
4.468139
 20
6.723589
 30
0.0
 11
4.442627
 21
6.725995
 31
0.0
  0
LINE
  5
2B4
100
AcDbEntity
 67
     1
  8
1
390
0
  6
Continuous
 62
     7
100
AcDbLine
 10
4.442627
 20
6.725995
 30
0.0
 11
4.406172
 21
6.729434
 31
0.0
  0
LINE
  5
2B5
100
AcDbEntity
 67
     1
  8
1
390
0
  6
Continuous
 62
     7
100
AcDbLine
 10
4.406172
 20
6.729434
 30
0.0
 11
4.202149
 21
6.748676
 31
0.0
  0
LINE
  5
2B6
100
AcDbEntity
 67
     1
  8
1
390
0
  6
Continuous
 62
     7
100
AcDbLine
 10
4.468139
 20
6.785763
 30
0.0
 11
4.442627
 21
6.783357
 31
0.0
  0
LINE
  5
2B7
100
AcDbEntity
 67
     1
  8
1
390
0
  6
Continuous
 62
     7
100
AcDbLine
 10
4.442627
 20
6.783357
 30
0.0
 11
4.406172
 21
6.779919
 31
0.0
  0
LINE
  5
2B8
100
AcDbEntity
 67
     1
  8
1
390
0
  6
Continuous
 62
     7
100
AcDbLine
 10
4.406172
 20
6.779919
 30
0.0
 11
4.202149
 21
6.760676
 31
0.0
  0
LINE
  5
2B9
100
AcDbEntity
 67
     1
  8
1
390
0
  6
Continuous
 62
     7
100
AcDbLine
 10
4.196149
 20
6.661176
 30
0.0
 11
4.196189
 21
6.661174
 31
0.0
  0
LINE
  5
2BA
100
AcDbEntity
 67
     1
  8
1
390
0
  6
Continuous
 62
     7
100
AcDbLine
 10
4.196189
 20
6.661174
 30
0.0
 11
4.196753
 21
6.661139
 31
0.0
  0
LINE
  5
2BB
100
AcDbEntity
 67
     1
  8
1
390
0
  6
Continuous
 62
     7
100
AcDbLine
 10
4.196753
 20
6.661139
 30
0.0
 11
4.197922
 21
6.661057
 31
0.0
  0
LINE
  5
2BC
100
AcDbEntity
 67
     1
  8
1
390
0
  6
Continuous
 62
     7
100
AcDbLine
 10
4.197922
 20
6.661057
 30
0.0
 11
4.199563
 21
6.660915
 31
0.0
  0
LINE
  5
2BD
100
AcDbEntity
 67
     1
  8
1
390
0
  6
Continuous
 62
     7
100
AcDbLine
 10
4.199563
 20
6.660915
 30
0.0
 11
4.201491
 21
6.660713
 31
0.0
  0
LINE
  5
2BE
100
AcDbEntity
 67
     1
  8
1
390
0
  6
Continuous
 62
     7
100
AcDbLine
 10
4.201491
 20
6.660713
 30
0.0
 11
4.202149
 21
6.660635
 31
0.0
  0
LINE
  5
2BF
100
AcDbEntity
 67
     1
  8
1
390
0
  6
Continuous
 62
     7
100
AcDbLine
 10
4.202149
 20
6.660635
 30
0.0
 11
4.201813
 21
6.660673
 31
0.0
  0
LINE
  5
2C0
100
AcDbEntity
 67
     1
  8
1
390
0
  6
Continuous
 62
     7
100
AcDbLine
 10
4.20114
 20
6.660748
 30
0.0
 11
4.200804
 21
6.660785
 31
0.0
  0
LINE
  5
2C1
100
AcDbEntity
 67
     1
  8
1
390
0
  6
Continuous
 62
     7
100
AcDbLine
 10
4.468139
 20
6.700456
 30
0.0
 11
4.442627
 21
6.663852
 31
0.0
  0
LINE
  5
2C2
100
AcDbEntity
 67
     1
  8
1
390
0
  6
Continuous
 62
     7
100
AcDbLine
 10
4.442627
 20
6.663852
 30
0.0
 11
4.406172
 21
6.638244
 31
0.0
  0
LINE
  5
2C3
100
AcDbEntity
 67
     1
  8
1
390
0
  6
Continuous
 62
     7
100
AcDbLine
 10
4.406172
 20
6.638244
 30
0.0
 11
4.202149
 21
6.660635
 31
0.0
  0
LINE
  5
2C4
100
AcDbEntity
 67
     1
  8
1
390
0
  6
Continuous
 62
     7
100
AcDbLine
 10
4.202149
 20
6.848717
 30
0.0
 11
4.200169
 21
6.848496
 31
0.0
  0
LINE
  5
2C5
100
AcDbEntity
 67
     1
  8
1
390
0
  6
Continuous
 62
     7
100
AcDbLine
 10
4.200169
 20
6.848496
 30
0.0
 11
4.198399
 21
6.848334
 31
0.0
  0
LINE
  5
2C6
100
AcDbEntity
 67
     1
  8
1
390
0
  6
Continuous
 62
     7
100
AcDbLine
 10
4.198399
 20
6.848334
 30
0.0
 11
4.197059
 21
6.848233
 31
0.0
  0
LINE
  5
2C7
100
AcDbEntity
 67
     1
  8
1
390
0
  6
Continuous
 62
     7
100
AcDbLine
 10
4.197059
 20
6.848233
 30
0.0
 11
4.196295
 21
6.848185
 31
0.0
  0
LINE
  5
2C8
100
AcDbEntity
 67
     1
  8
1
390
0
  6
Continuous
 62
     7
100
AcDbLine
 10
4.196295
 20
6.848185
 30
0.0
 11
4.196149
 21
6.848176
 31
0.0
  0
LINE
  5
2C9
100
AcDbEntity
 67
     1
  8
1
390
0
  6
Continuous
 62
     7
100
AcDbLine
 10
4.202149
 20
6.848717
 30
0.0
 11
4.368488
 21
6.867141
 31
0.0
  0
LINE
  5
2CA
100
AcDbEntity
 67
     1
  8
1
390
0
  6
Continuous
 62
     7
100
AcDbLine
 10
4.368488
 20
6.867141
 30
0.0
 11
4.406172
 21
6.871108
 31
0.0
  0
LINE
  5
2CB
100
AcDbEntity
 67
     1
  8
1
390
0
  6
Continuous
 62
     7
100
AcDbLine
 10
4.406172
 20
6.871108
 30
0.0
 11
4.442627
 21
6.8455
 31
0.0
  0
LINE
  5
2CC
100
AcDbEntity
 67
     1
  8
1
390
0
  6
Continuous
 62
     7
100
AcDbLine
 10
4.442627
 20
6.8455
 30
0.0
 11
4.468139
 21
6.808897
 31
0.0
  0
LINE
  5
2CD
100
AcDbEntity
 67
     1
  8
1
390
0
  6
Continuous
 62
     7
100
AcDbLine
 10
4.406172
 20
6.729434
 30
0.0
 11
4.406172
 21
6.697617
 31
0.0
  0
LINE
  5
2CE
100
AcDbEntity
 67
     1
  8
1
390
0
  6
Continuous
 62
     7
100
AcDbLine
 10
4.406172
 20
6.697617
 30
0.0
 11
4.406172
 21
6.670434
 31
0.0
  0
LINE
  5
2CF
100
AcDbEntity
 67
     1
  8
1
390
0
  6
Continuous
 62
     7
100
AcDbLine
 10
4.406172
 20
6.670434
 30
0.0
 11
4.406172
 21
6.650092
 31
0.0
  0
LINE
  5
2D0
100
AcDbEntity
 67
     1
  8
1
390
0
  6
Continuous
 62
     7
100
AcDbLine
 10
4.406172
 20
6.650092
 30
0.0
 11
4.406172
 21
6.638244
 31
0.0
  0
LINE
  5
2D1
100
AcDbEntity
 67
     1
  8
1
390
0
  6
Continuous
 62
     7
100
AcDbLine
 10
4.196149
 20
6.754676
 30
0.0
 11
4.196149
 21
6.725783
 31
0.0
  0
LINE
  5
2D2
100
AcDbEntity
 67
     1
  8
1
390
0
  6
Continuous
 62
     7
100
AcDbLine
 10
4.196149
 20
6.725783
 30
0.0
 11
4.196149
 21
6.699718
 31
0.0
  0
LINE
  5
2D3
100
AcDbEntity
 67
     1
  8
1
390
0
  6
Continuous
 62
     7
100
AcDbLine
 10
4.196149
 20
6.699718
 30
0.0
 11
4.196149
 21
6.679033
 31
0.0
  0
LINE
  5
2D4
100
AcDbEntity
 67
     1
  8
1
390
0
  6
Continuous
 62
     7
100
AcDbLine
 10
4.196149
 20
6.679033
 30
0.0
 11
4.196149
 21
6.665752
 31
0.0
  0
LINE
  5
2D5
100
AcDbEntity
 67
     1
  8
1
390
0
  6
Continuous
 62
     7
100
AcDbLine
 10
4.196149
 20
6.665752
 30
0.0
 11
4.196149
 21
6.661176
 31
0.0
  0
LINE
  5
2D6
100
AcDbEntity
 67
     1
  8
1
390
0
  6
Continuous
 62
     7
100
AcDbLine
 10
4.406172
 20
6.871108
 30
0.0
 11
4.406172
 21
6.85926
 31
0.0
  0
LINE
  5
2D7
100
AcDbEntity
 67
     1
  8
1
390
0
  6
Continuous
 62
     7
100
AcDbLine
 10
4.406172
 20
6.85926
 30
0.0
 11
4.406172
 21
6.838919
 31
0.0
  0
LINE
  5
2D8
100
AcDbEntity
 67
     1
  8
1
390
0
  6
Continuous
 62
     7
100
AcDbLine
 10
4.406172
 20
6.838919
 30
0.0
 11
4.406172
 21
6.811736
 31
0.0
  0
LINE
  5
2D9
100
AcDbEntity
 67
     1
  8
1
390
0
  6
Continuous
 62
     7
100
AcDbLine
 10
4.406172
 20
6.811736
 30
0.0
 11
4.406172
 21
6.779919
 31
0.0
  0
LINE
  5
2DA
100
AcDbEntity
 67
     1
  8
1
390
0
  6
Continuous
 62
     7
100
AcDbLine
 10
4.196149
 20
6.848176
 30
0.0
 11
4.196149
 21
6.8436
 31
0.0
  0
LINE
  5
2DB
100
AcDbEntity
 67
     1
  8
1
390
0
  6
Continuous
 62
     7
100
AcDbLine
 10
4.196149
 20
6.8436
 30
0.0
 11
4.196149
 21
6.830319
 31
0.0
  0
LINE
  5
2DC
100
AcDbEntity
 67
     1
  8
1
390
0
  6
Continuous
 62
     7
100
AcDbLine
 10
4.196149
 20
6.830319
 30
0.0
 11
4.196149
 21
6.809634
 31
0.0
  0
LINE
  5
2DD
100
AcDbEntity
 67
     1
  8
1
390
0
  6
Continuous
 62
     7
100
AcDbLine
 10
4.196149
 20
6.809634
 30
0.0
 11
4.196149
 21
6.783569
 31
0.0
  0
LINE
  5
2DE
100
AcDbEntity
 67
     1
  8
1
390
0
  6
Continuous
 62
     7
100
AcDbLine
 10
4.196149
 20
6.783569
 30
0.0
 11
4.196149
 21
6.754676
 31
0.0
  0
LINE
  5
2DF
100
AcDbEntity
 67
     1
  8
1
390
0
  6
Continuous
 62
     7
100
AcDbLine
 10
4.098149
 20
6.754676
 30
0.0
 11
4.098149
 21
6.797401
 31
0.0
  0
LINE
  5
2E0
100
AcDbEntity
 67
     1
  8
1
390
0
  6
Continuous
 62
     7
100
AcDbLine
 10
4.098149
 20
6.797401
 30
0.0
 11
4.098149
 21
6.838484
 31
0.0
  0
LINE
  5
2E1
100
AcDbEntity
 67
     1
  8
1
390
0
  6
Continuous
 62
     7
100
AcDbLine
 10
4.098149
 20
6.838484
 30
0.0
 11
4.098149
 21
6.876346
 31
0.0
  0
LINE
  5
2E2
100
AcDbEntity
 67
     1
  8
1
390
0
  6
Continuous
 62
     7
100
AcDbLine
 10
4.098149
 20
6.876346
 30
0.0
 11
4.098149
 21
6.909533
 31
0.0
  0
LINE
  5
2E3
100
AcDbEntity
 67
     1
  8
1
390
0
  6
Continuous
 62
     7
100
AcDbLine
 10
4.098149
 20
6.909533
 30
0.0
 11
4.098149
 21
6.936768
 31
0.0
  0
LINE
  5
2E4
100
AcDbEntity
 67
     1
  8
1
390
0
  6
Continuous
 62
     7
100
AcDbLine
 10
4.098149
 20
6.936768
 30
0.0
 11
4.098149
 21
6.957006
 31
0.0
  0
LINE
  5
2E5
100
AcDbEntity
 67
     1
  8
1
390
0
  6
Continuous
 62
     7
100
AcDbLine
 10
4.098149
 20
6.957006
 30
0.0
 11
4.098149
 21
6.969468
 31
0.0
  0
LINE
  5
2E6
100
AcDbEntity
 67
     1
  8
1
390
0
  6
Continuous
 62
     7
100
AcDbLine
 10
4.098149
 20
6.969468
 30
0.0
 11
4.098149
 21
6.973676
 31
0.0
  0
LINE
  5
2E7
100
AcDbEntity
 67
     1
  8
1
390
0
  6
Continuous
 62
     7
100
AcDbLine
 10
4.098149
 20
6.535676
 30
0.0
 11
4.098149
 21
6.539884
 31
0.0
  0
LINE
  5
2E8
100
AcDbEntity
 67
     1
  8
1
390
0
  6
Continuous
 62
     7
100
AcDbLine
 10
4.098149
 20
6.539884
 30
0.0
 11
4.098149
 21
6.552347
 31
0.0
  0
LINE
  5
2E9
100
AcDbEntity
 67
     1
  8
1
390
0
  6
Continuous
 62
     7
100
AcDbLine
 10
4.098149
 20
6.552347
 30
0.0
 11
4.098149
 21
6.572584
 31
0.0
  0
LINE
  5
2EA
100
AcDbEntity
 67
     1
  8
1
390
0
  6
Continuous
 62
     7
100
AcDbLine
 10
4.098149
 20
6.572584
 30
0.0
 11
4.098149
 21
6.59982
 31
0.0
  0
LINE
  5
2EB
100
AcDbEntity
 67
     1
  8
1
390
0
  6
Continuous
 62
     7
100
AcDbLine
 10
4.098149
 20
6.59982
 30
0.0
 11
4.098149
 21
6.633006
 31
0.0
  0
LINE
  5
2EC
100
AcDbEntity
 67
     1
  8
1
390
0
  6
Continuous
 62
     7
100
AcDbLine
 10
4.098149
 20
6.633006
 30
0.0
 11
4.098149
 21
6.670868
 31
0.0
  0
LINE
  5
2ED
100
AcDbEntity
 67
     1
  8
1
390
0
  6
Continuous
 62
     7
100
AcDbLine
 10
4.098149
 20
6.670868
 30
0.0
 11
4.098149
 21
6.711951
 31
0.0
  0
LINE
  5
2EE
100
AcDbEntity
 67
     1
  8
1
390
0
  6
Continuous
 62
     7
100
AcDbLine
 10
4.098149
 20
6.711951
 30
0.0
 11
4.098149
 21
6.754676
 31
0.0
  0
LINE
  5
2EF
100
AcDbEntity
 67
     1
  8
1
390
0
  6
Continuous
 62
     7
100
AcDbLine
 10
4.026149
 20
6.816176
 30
0.0
 11
4.026149
 21
6.811495
 31
0.0
  0
LINE
  5
2F0
100
AcDbEntity
 67
     1
  8
1
390
0
  6
Continuous
 62
     7
100
AcDbLine
 10
4.026149
 20
6.811495
 30
0.0
 11
4.026149
 21
6.798163
 31
0.0
  0
LINE
  5
2F1
100
AcDbEntity
 67
     1
  8
1
390
0
  6
Continuous
 62
     7
100
AcDbLine
 10
4.026149
 20
6.798163
 30
0.0
 11
4.026149
 21
6.778211
 31
0.0
  0
LINE
  5
2F2
100
AcDbEntity
 67
     1
  8
1
390
0
  6
Continuous
 62
     7
100
AcDbLine
 10
4.026149
 20
6.778211
 30
0.0
 11
4.026149
 21
6.754676
 31
0.0
  0
LINE
  5
2F3
100
AcDbEntity
 67
     1
  8
1
390
0
  6
Continuous
 62
     7
100
AcDbLine
 10
4.026149
 20
6.754676
 30
0.0
 11
4.026149
 21
6.731141
 31
0.0
  0
LINE
  5
2F4
100
AcDbEntity
 67
     1
  8
1
390
0
  6
Continuous
 62
     7
100
AcDbLine
 10
4.026149
 20
6.731141
 30
0.0
 11
4.026149
 21
6.711189
 31
0.0
  0
LINE
  5
2F5
100
AcDbEntity
 67
     1
  8
1
390
0
  6
Continuous
 62
     7
100
AcDbLine
 10
4.026149
 20
6.711189
 30
0.0
 11
4.026149
 21
6.697857
 31
0.0
  0
LINE
  5
2F6
100
AcDbEntity
 67
     1
  8
1
390
0
  6
Continuous
 62
     7
100
AcDbLine
 10
4.026149
 20
6.697857
 30
0.0
 11
4.026149
 21
6.693176
 31
0.0
  0
LINE
  5
2F7
100
AcDbEntity
 67
     1
  8
1
390
0
  6
Continuous
 62
     7
100
AcDbLine
 10
3.575149
 20
6.816176
 30
0.0
 11
3.575149
 21
6.811495
 31
0.0
  0
LINE
  5
2F8
100
AcDbEntity
 67
     1
  8
1
390
0
  6
Continuous
 62
     7
100
AcDbLine
 10
3.575149
 20
6.811495
 30
0.0
 11
3.575149
 21
6.798163
 31
0.0
  0
LINE
  5
2F9
100
AcDbEntity
 67
     1
  8
1
390
0
  6
Continuous
 62
     7
100
AcDbLine
 10
3.575149
 20
6.798163
 30
0.0
 11
3.575149
 21
6.778211
 31
0.0
  0
LINE
  5
2FA
100
AcDbEntity
 67
     1
  8
1
390
0
  6
Continuous
 62
     7
100
AcDbLine
 10
3.575149
 20
6.778211
 30
0.0
 11
3.575149
 21
6.754676
 31
0.0
  0
LINE
  5
2FB
100
AcDbEntity
 67
     1
  8
1
390
0
  6
Continuous
 62
     7
100
AcDbLine
 10
3.575149
 20
6.754676
 30
0.0
 11
3.575149
 21
6.731141
 31
0.0
  0
LINE
  5
2FC
100
AcDbEntity
 67
     1
  8
1
390
0
  6
Continuous
 62
     7
100
AcDbLine
 10
3.575149
 20
6.731141
 30
0.0
 11
3.575149
 21
6.711189
 31
0.0
  0
LINE
  5
2FD
100
AcDbEntity
 67
     1
  8
1
390
0
  6
Continuous
 62
     7
100
AcDbLine
 10
3.575149
 20
6.711189
 30
0.0
 11
3.575149
 21
6.697857
 31
0.0
  0
LINE
  5
2FE
100
AcDbEntity
 67
     1
  8
1
390
0
  6
Continuous
 62
     7
100
AcDbLine
 10
3.575149
 20
6.697857
 30
0.0
 11
3.575149
 21
6.693176
 31
0.0
  0
LINE
  5
2FF
100
AcDbEntity
 67
     1
  8
1
390
0
  6
Continuous
 62
     7
100
AcDbLine
 10
4.071721
 20
6.754676
 30
0.0
 11
4.071721
 21
6.797221
 31
0.0
  0
LINE
  5
300
100
AcDbEntity
 67
     1
  8
1
390
0
  6
Continuous
 62
     7
100
AcDbLine
 10
4.071721
 20
6.797221
 30
0.0
 11
4.071721
 21
6.83813
 31
0.0
  0
LINE
  5
301
100
AcDbEntity
 67
     1
  8
1
390
0
  6
Continuous
 62
     7
100
AcDbLine
 10
4.071721
 20
6.83813
 30
0.0
 11
4.071721
 21
6.875833
 31
0.0
  0
LINE
  5
302
100
AcDbEntity
 67
     1
  8
1
390
0
  6
Continuous
 62
     7
100
AcDbLine
 10
4.071721
 20
6.875833
 30
0.0
 11
4.071721
 21
6.90888
 31
0.0
  0
LINE
  5
303
100
AcDbEntity
 67
     1
  8
1
390
0
  6
Continuous
 62
     7
100
AcDbLine
 10
4.071721
 20
6.90888
 30
0.0
 11
4.071721
 21
6.936001
 31
0.0
  0
LINE
  5
304
100
AcDbEntity
 67
     1
  8
1
390
0
  6
Continuous
 62
     7
100
AcDbLine
 10
4.071721
 20
6.936001
 30
0.0
 11
4.071721
 21
6.956153
 31
0.0
  0
LINE
  5
305
100
AcDbEntity
 67
     1
  8
1
390
0
  6
Continuous
 62
     7
100
AcDbLine
 10
4.071721
 20
6.956153
 30
0.0
 11
4.071721
 21
6.968563
 31
0.0
  0
LINE
  5
306
100
AcDbEntity
 67
     1
  8
1
390
0
  6
Continuous
 62
     7
100
AcDbLine
 10
4.071721
 20
6.968563
 30
0.0
 11
4.071721
 21
6.972753
 31
0.0
  0
LINE
  5
307
100
AcDbEntity
 67
     1
  8
1
390
0
  6
Continuous
 62
     7
100
AcDbLine
 10
4.071721
 20
6.536599
 30
0.0
 11
4.071721
 21
6.540789
 31
0.0
  0
LINE
  5
308
100
AcDbEntity
 67
     1
  8
1
390
0
  6
Continuous
 62
     7
100
AcDbLine
 10
4.071721
 20
6.540789
 30
0.0
 11
4.071721
 21
6.553199
 31
0.0
  0
LINE
  5
309
100
AcDbEntity
 67
     1
  8
1
390
0
  6
Continuous
 62
     7
100
AcDbLine
 10
4.071721
 20
6.553199
 30
0.0
 11
4.071721
 21
6.573351
 31
0.0
  0
LINE
  5
30A
100
AcDbEntity
 67
     1
  8
1
390
0
  6
Continuous
 62
     7
100
AcDbLine
 10
4.071721
 20
6.573351
 30
0.0
 11
4.071721
 21
6.600472
 31
0.0
  0
LINE
  5
30B
100
AcDbEntity
 67
     1
  8
1
390
0
  6
Continuous
 62
     7
100
AcDbLine
 10
4.071721
 20
6.600472
 30
0.0
 11
4.071721
 21
6.633519
 31
0.0
  0
LINE
  5
30C
100
AcDbEntity
 67
     1
  8
1
390
0
  6
Continuous
 62
     7
100
AcDbLine
 10
4.071721
 20
6.633519
 30
0.0
 11
4.071721
 21
6.671222
 31
0.0
  0
LINE
  5
30D
100
AcDbEntity
 67
     1
  8
1
390
0
  6
Continuous
 62
     7
100
AcDbLine
 10
4.071721
 20
6.671222
 30
0.0
 11
4.071721
 21
6.712132
 31
0.0
  0
LINE
  5
30E
100
AcDbEntity
 67
     1
  8
1
390
0
  6
Continuous
 62
     7
100
AcDbLine
 10
4.071721
 20
6.712132
 30
0.0
 11
4.071721
 21
6.754676
 31
0.0
  0
LINE
  5
30F
100
AcDbEntity
 67
     1
  8
1
390
0
  6
Continuous
 62
     7
100
AcDbLine
 10
4.042034
 20
6.754676
 30
0.0
 11
4.042034
 21
6.79715
 31
0.0
  0
LINE
  5
310
100
AcDbEntity
 67
     1
  8
1
390
0
  6
Continuous
 62
     7
100
AcDbLine
 10
4.042034
 20
6.79715
 30
0.0
 11
4.042034
 21
6.837493
 31
0.0
  0
LINE
  5
311
100
AcDbEntity
 67
     1
  8
1
390
0
  6
Continuous
 62
     7
100
AcDbLine
 10
4.042034
 20
6.837493
 30
0.0
 11
4.042034
 21
6.873684
 31
0.0
  0
LINE
  5
312
100
AcDbEntity
 67
     1
  8
1
390
0
  6
Continuous
 62
     7
100
AcDbLine
 10
4.042034
 20
6.873684
 30
0.0
 11
4.042034
 21
6.903907
 31
0.0
  0
LINE
  5
313
100
AcDbEntity
 67
     1
  8
1
390
0
  6
Continuous
 62
     7
100
AcDbLine
 10
4.042034
 20
6.903907
 30
0.0
 11
4.042034
 21
6.926648
 31
0.0
  0
LINE
  5
314
100
AcDbEntity
 67
     1
  8
1
390
0
  6
Continuous
 62
     7
100
AcDbLine
 10
4.042034
 20
6.926648
 30
0.0
 11
4.042034
 21
6.940764
 31
0.0
  0
LINE
  5
315
100
AcDbEntity
 67
     1
  8
1
390
0
  6
Continuous
 62
     7
100
AcDbLine
 10
4.042034
 20
6.940764
 30
0.0
 11
4.042034
 21
6.94555
 31
0.0
  0
LINE
  5
316
100
AcDbEntity
 67
     1
  8
1
390
0
  6
Continuous
 62
     7
100
AcDbLine
 10
4.042034
 20
6.563802
 30
0.0
 11
4.042034
 21
6.568588
 31
0.0
  0
LINE
  5
317
100
AcDbEntity
 67
     1
  8
1
390
0
  6
Continuous
 62
     7
100
AcDbLine
 10
4.042034
 20
6.568588
 30
0.0
 11
4.042034
 21
6.582705
 31
0.0
  0
LINE
  5
318
100
AcDbEntity
 67
     1
  8
1
390
0
  6
Continuous
 62
     7
100
AcDbLine
 10
4.042034
 20
6.582705
 30
0.0
 11
4.042034
 21
6.605445
 31
0.0
  0
LINE
  5
319
100
AcDbEntity
 67
     1
  8
1
390
0
  6
Continuous
 62
     7
100
AcDbLine
 10
4.042034
 20
6.605445
 30
0.0
 11
4.042034
 21
6.635668
 31
0.0
  0
LINE
  5
31A
100
AcDbEntity
 67
     1
  8
1
390
0
  6
Continuous
 62
     7
100
AcDbLine
 10
4.042034
 20
6.635668
 30
0.0
 11
4.042034
 21
6.671859
 31
0.0
  0
LINE
  5
31B
100
AcDbEntity
 67
     1
  8
1
390
0
  6
Continuous
 62
     7
100
AcDbLine
 10
4.042034
 20
6.671859
 30
0.0
 11
4.042034
 21
6.712203
 31
0.0
  0
LINE
  5
31C
100
AcDbEntity
 67
     1
  8
1
390
0
  6
Continuous
 62
     7
100
AcDbLine
 10
4.042034
 20
6.712203
 30
0.0
 11
4.042034
 21
6.754676
 31
0.0
  0
LINE
  5
31D
100
AcDbEntity
 67
     1
  8
1
390
0
  6
Continuous
 62
     7
100
AcDbLine
 10
4.034253
 20
6.754676
 30
0.0
 11
4.034253
 21
6.787675
 31
0.0
  0
LINE
  5
31E
100
AcDbEntity
 67
     1
  8
1
390
0
  6
Continuous
 62
     7
100
AcDbLine
 10
4.034253
 20
6.787675
 30
0.0
 11
4.034253
 21
6.818426
 31
0.0
  0
LINE
  5
31F
100
AcDbEntity
 67
     1
  8
1
390
0
  6
Continuous
 62
     7
100
AcDbLine
 10
4.034253
 20
6.818426
 30
0.0
 11
4.034253
 21
6.844832
 31
0.0
  0
LINE
  5
320
100
AcDbEntity
 67
     1
  8
1
390
0
  6
Continuous
 62
     7
100
AcDbLine
 10
4.034253
 20
6.844832
 30
0.0
 11
4.034253
 21
6.865094
 31
0.0
  0
LINE
  5
321
100
AcDbEntity
 67
     1
  8
1
390
0
  6
Continuous
 62
     7
100
AcDbLine
 10
4.034253
 20
6.865094
 30
0.0
 11
4.034253
 21
6.877831
 31
0.0
  0
LINE
  5
322
100
AcDbEntity
 67
     1
  8
1
390
0
  6
Continuous
 62
     7
100
AcDbLine
 10
4.034253
 20
6.877831
 30
0.0
 11
4.034253
 21
6.882176
 31
0.0
  0
LINE
  5
323
100
AcDbEntity
 67
     1
  8
1
390
0
  6
Continuous
 62
     7
100
AcDbLine
 10
4.034253
 20
6.627176
 30
0.0
 11
4.034253
 21
6.631521
 31
0.0
  0
LINE
  5
324
100
AcDbEntity
 67
     1
  8
1
390
0
  6
Continuous
 62
     7
100
AcDbLine
 10
4.034253
 20
6.631521
 30
0.0
 11
4.034253
 21
6.644258
 31
0.0
  0
LINE
  5
325
100
AcDbEntity
 67
     1
  8
1
390
0
  6
Continuous
 62
     7
100
AcDbLine
 10
4.034253
 20
6.644258
 30
0.0
 11
4.034253
 21
6.66452
 31
0.0
  0
LINE
  5
326
100
AcDbEntity
 67
     1
  8
1
390
0
  6
Continuous
 62
     7
100
AcDbLine
 10
4.034253
 20
6.66452
 30
0.0
 11
4.034253
 21
6.690926
 31
0.0
  0
LINE
  5
327
100
AcDbEntity
 67
     1
  8
1
390
0
  6
Continuous
 62
     7
100
AcDbLine
 10
4.034253
 20
6.690926
 30
0.0
 11
4.034253
 21
6.721677
 31
0.0
  0
LINE
  5
328
100
AcDbEntity
 67
     1
  8
1
390
0
  6
Continuous
 62
     7
100
AcDbLine
 10
4.034253
 20
6.721677
 30
0.0
 11
4.034253
 21
6.754676
 31
0.0
  0
LINE
  5
329
100
AcDbEntity
 67
     1
  8
1
390
0
  6
Continuous
 62
     7
100
AcDbLine
 10
4.064648
 20
6.754676
 30
0.0
 11
4.064648
 21
6.785522
 31
0.0
  0
LINE
  5
32A
100
AcDbEntity
 67
     1
  8
1
390
0
  6
Continuous
 62
     7
100
AcDbLine
 10
4.064648
 20
6.847214
 30
0.0
 11
4.064648
 21
6.86153
 31
0.0
  0
LINE
  5
32B
100
AcDbEntity
 67
     1
  8
1
390
0
  6
Continuous
 62
     7
100
AcDbLine
 10
4.064648
 20
6.86153
 30
0.0
 11
4.064648
 21
6.873856
 31
0.0
  0
LINE
  5
32C
100
AcDbEntity
 67
     1
  8
1
390
0
  6
Continuous
 62
     7
100
AcDbLine
 10
4.064648
 20
6.873856
 30
0.0
 11
4.064648
 21
6.87806
 31
0.0
  0
LINE
  5
32D
100
AcDbEntity
 67
     1
  8
1
390
0
  6
Continuous
 62
     7
100
AcDbLine
 10
4.064648
 20
6.631292
 30
0.0
 11
4.064648
 21
6.635497
 31
0.0
  0
LINE
  5
32E
100
AcDbEntity
 67
     1
  8
1
390
0
  6
Continuous
 62
     7
100
AcDbLine
 10
4.064648
 20
6.635497
 30
0.0
 11
4.064648
 21
6.647822
 31
0.0
  0
LINE
  5
32F
100
AcDbEntity
 67
     1
  8
1
390
0
  6
Continuous
 62
     7
100
AcDbLine
 10
4.064648
 20
6.647822
 30
0.0
 11
4.064648
 21
6.662138
 31
0.0
  0
LINE
  5
330
100
AcDbEntity
 67
     1
  8
1
390
0
  6
Continuous
 62
     7
100
AcDbLine
 10
4.064648
 20
6.72383
 30
0.0
 11
4.064648
 21
6.754676
 31
0.0
  0
LINE
  5
331
100
AcDbEntity
 67
     1
  8
1
390
0
  6
Continuous
 62
     7
100
AcDbLine
 10
4.101149
 20
6.848176
 30
0.0
 11
4.101149
 21
6.8436
 31
0.0
  0
LINE
  5
332
100
AcDbEntity
 67
     1
  8
1
390
0
  6
Continuous
 62
     7
100
AcDbLine
 10
4.101149
 20
6.8436
 30
0.0
 11
4.101149
 21
6.830319
 31
0.0
  0
LINE
  5
333
100
AcDbEntity
 67
     1
  8
1
390
0
  6
Continuous
 62
     7
100
AcDbLine
 10
4.101149
 20
6.830319
 30
0.0
 11
4.101149
 21
6.809634
 31
0.0
  0
LINE
  5
334
100
AcDbEntity
 67
     1
  8
1
390
0
  6
Continuous
 62
     7
100
AcDbLine
 10
4.101149
 20
6.809634
 30
0.0
 11
4.101149
 21
6.783569
 31
0.0
  0
LINE
  5
335
100
AcDbEntity
 67
     1
  8
1
390
0
  6
Continuous
 62
     7
100
AcDbLine
 10
4.101149
 20
6.783569
 30
0.0
 11
4.101149
 21
6.754676
 31
0.0
  0
LINE
  5
336
100
AcDbEntity
 67
     1
  8
1
390
0
  6
Continuous
 62
     7
100
AcDbLine
 10
4.101149
 20
6.754676
 30
0.0
 11
4.101149
 21
6.725783
 31
0.0
  0
LINE
  5
337
100
AcDbEntity
 67
     1
  8
1
390
0
  6
Continuous
 62
     7
100
AcDbLine
 10
4.101149
 20
6.725783
 30
0.0
 11
4.101149
 21
6.699718
 31
0.0
  0
LINE
  5
338
100
AcDbEntity
 67
     1
  8
1
390
0
  6
Continuous
 62
     7
100
AcDbLine
 10
4.101149
 20
6.699718
 30
0.0
 11
4.101149
 21
6.679033
 31
0.0
  0
LINE
  5
339
100
AcDbEntity
 67
     1
  8
1
390
0
  6
Continuous
 62
     7
100
AcDbLine
 10
4.101149
 20
6.679033
 30
0.0
 11
4.101149
 21
6.665752
 31
0.0
  0
LINE
  5
33A
100
AcDbEntity
 67
     1
  8
1
390
0
  6
Continuous
 62
     7
100
AcDbLine
 10
4.101149
 20
6.665752
 30
0.0
 11
4.101149
 21
6.661176
 31
0.0
  0
LINE
  5
33B
100
AcDbEntity
 67
     1
  8
1
390
0
  6
Continuous
 62
     7
100
AcDbLine
 10
4.468139
 20
6.785763
 30
0.0
 11
4.468139
 21
6.79887
 31
0.0
  0
LINE
  5
33C
100
AcDbEntity
 67
     1
  8
1
390
0
  6
Continuous
 62
     7
100
AcDbLine
 10
4.468139
 20
6.79887
 30
0.0
 11
4.468139
 21
6.808897
 31
0.0
  0
LINE
  5
33D
100
AcDbEntity
 67
     1
  8
1
390
0
  6
Continuous
 62
     7
100
AcDbLine
 10
4.468139
 20
6.700456
 30
0.0
 11
4.468139
 21
6.710482
 31
0.0
  0
LINE
  5
33E
100
AcDbEntity
 67
     1
  8
1
390
0
  6
Continuous
 62
     7
100
AcDbLine
 10
4.468139
 20
6.710482
 30
0.0
 11
4.468139
 21
6.723589
 31
0.0
  0
LINE
  5
33F
100
AcDbEntity
 67
     1
  8
1
390
0
  6
Continuous
 62
     7
100
AcDbLine
 10
4.278149
 20
6.795953
 30
0.0
 11
4.278149
 21
6.795682
 31
0.0
  0
LINE
  5
340
100
AcDbEntity
 67
     1
  8
1
390
0
  6
Continuous
 62
     7
100
AcDbLine
 10
4.278149
 20
6.795141
 30
0.0
 11
4.278149
 21
6.79487
 31
0.0
  0
LINE
  5
341
100
AcDbEntity
 67
     1
  8
1
390
0
  6
Continuous
 62
     7
100
AcDbLine
 10
4.278149
 20
6.714482
 30
0.0
 11
4.278149
 21
6.714211
 31
0.0
  0
LINE
  5
342
100
AcDbEntity
 67
     1
  8
1
390
0
  6
Continuous
 62
     7
100
AcDbLine
 10
4.278149
 20
6.71367
 30
0.0
 11
4.278149
 21
6.713399
 31
0.0
  0
LINE
  5
343
100
AcDbEntity
 67
     1
  8
1
390
0
  6
Continuous
 62
     7
100
AcDbLine
 10
8.441439
 20
4.544886
 30
0.0
 11
8.442362
 21
4.520396
 31
0.0
  0
LINE
  5
344
100
AcDbEntity
 67
     1
  8
1
390
0
  6
Continuous
 62
     7
100
AcDbLine
 10
8.878472
 20
4.520396
 30
0.0
 11
8.879395
 21
4.544886
 31
0.0
  0
LINE
  5
345
100
AcDbEntity
 67
     1
  8
1
390
0
  6
Continuous
 62
     7
100
AcDbLine
 10
8.753802
 20
4.635145
 30
0.0
 11
8.779408
 21
4.82933
 31
0.0
  0
LINE
  5
346
100
AcDbEntity
 67
     1
  8
1
390
0
  6
Continuous
 62
     7
100
AcDbLine
 10
8.541426
 20
4.82933
 30
0.0
 11
8.567031
 21
4.635145
 31
0.0
  0
LINE
  5
347
100
AcDbEntity
 67
     1
  8
1
390
0
  6
Continuous
 62
     7
100
AcDbLine
 10
8.753917
 20
4.548829
 30
0.0
 11
8.753917
 21
4.636011
 31
0.0
  0
LINE
  5
348
100
AcDbEntity
 67
     1
  8
1
390
0
  6
Continuous
 62
     7
100
AcDbLine
 10
8.566916
 20
4.636011
 30
0.0
 11
8.566916
 21
4.548829
 31
0.0
  0
LINE
  5
349
100
AcDbEntity
 67
     1
  8
1
390
0
  6
Continuous
 62
     7
100
AcDbLine
 10
8.721916
 20
4.061303
 30
0.0
 11
8.721916
 21
4.424999
 31
0.0
  0
LINE
  5
34A
100
AcDbEntity
 67
     1
  8
1
390
0
  6
Continuous
 62
     7
100
AcDbLine
 10
8.598917
 20
4.425065
 30
0.0
 11
8.598917
 21
4.061303
 31
0.0
  0
LINE
  5
34B
100
AcDbEntity
 67
     1
  8
1
390
0
  6
Continuous
 62
     7
100
AcDbLine
 10
8.442543
 20
4.520282
 30
0.0
 11
8.442693
 21
4.516678
 31
0.0
  0
LINE
  5
34C
100
AcDbEntity
 67
     1
  8
1
390
0
  6
Continuous
 62
     7
100
AcDbLine
 10
8.442693
 20
4.516678
 30
0.0
 11
8.4431
 21
4.513121
 31
0.0
  0
LINE
  5
34D
100
AcDbEntity
 67
     1
  8
1
390
0
  6
Continuous
 62
     7
100
AcDbLine
 10
8.4431
 20
4.513121
 30
0.0
 11
8.444094
 21
4.508283
 31
0.0
  0
LINE
  5
34E
100
AcDbEntity
 67
     1
  8
1
390
0
  6
Continuous
 62
     7
100
AcDbLine
 10
8.444094
 20
4.508283
 30
0.0
 11
8.445519
 21
4.50356
 31
0.0
  0
LINE
  5
34F
100
AcDbEntity
 67
     1
  8
1
390
0
  6
Continuous
 62
     7
100
AcDbLine
 10
8.445519
 20
4.50356
 30
0.0
 11
8.447317
 21
4.498934
 31
0.0
  0
LINE
  5
350
100
AcDbEntity
 67
     1
  8
1
390
0
  6
Continuous
 62
     7
100
AcDbLine
 10
8.447317
 20
4.498934
 30
0.0
 11
8.449449
 21
4.494481
 31
0.0
  0
LINE
  5
351
100
AcDbEntity
 67
     1
  8
1
390
0
  6
Continuous
 62
     7
100
AcDbLine
 10
8.449449
 20
4.494481
 30
0.0
 11
8.451992
 21
4.490059
 31
0.0
  0
LINE
  5
352
100
AcDbEntity
 67
     1
  8
1
390
0
  6
Continuous
 62
     7
100
AcDbLine
 10
8.451992
 20
4.490059
 30
0.0
 11
8.454845
 21
4.485838
 31
0.0
  0
LINE
  5
353
100
AcDbEntity
 67
     1
  8
1
390
0
  6
Continuous
 62
     7
100
AcDbLine
 10
8.454845
 20
4.485838
 30
0.0
 11
8.458166
 21
4.481589
 31
0.0
  0
LINE
  5
354
100
AcDbEntity
 67
     1
  8
1
390
0
  6
Continuous
 62
     7
100
AcDbLine
 10
8.458166
 20
4.481589
 30
0.0
 11
8.461772
 21
4.477553
 31
0.0
  0
LINE
  5
355
100
AcDbEntity
 67
     1
  8
1
390
0
  6
Continuous
 62
     7
100
AcDbLine
 10
8.461772
 20
4.477553
 30
0.0
 11
8.465929
 21
4.473454
 31
0.0
  0
LINE
  5
356
100
AcDbEntity
 67
     1
  8
1
390
0
  6
Continuous
 62
     7
100
AcDbLine
 10
8.465929
 20
4.473454
 30
0.0
 11
8.470375
 21
4.469569
 31
0.0
  0
LINE
  5
357
100
AcDbEntity
 67
     1
  8
1
390
0
  6
Continuous
 62
     7
100
AcDbLine
 10
8.470375
 20
4.469569
 30
0.0
 11
8.475428
 21
4.465635
 31
0.0
  0
LINE
  5
358
100
AcDbEntity
 67
     1
  8
1
390
0
  6
Continuous
 62
     7
100
AcDbLine
 10
8.475428
 20
4.465635
 30
0.0
 11
8.480783
 21
4.461909
 31
0.0
  0
LINE
  5
359
100
AcDbEntity
 67
     1
  8
1
390
0
  6
Continuous
 62
     7
100
AcDbLine
 10
8.480783
 20
4.461909
 30
0.0
 11
8.486707
 21
4.458213
 31
0.0
  0
LINE
  5
35A
100
AcDbEntity
 67
     1
  8
1
390
0
  6
Continuous
 62
     7
100
AcDbLine
 10
8.486707
 20
4.458213
 30
0.0
 11
8.492949
 21
4.454712
 31
0.0
  0
LINE
  5
35B
100
AcDbEntity
 67
     1
  8
1
390
0
  6
Continuous
 62
     7
100
AcDbLine
 10
8.492949
 20
4.454712
 30
0.0
 11
8.499619
 21
4.451341
 31
0.0
  0
LINE
  5
35C
100
AcDbEntity
 67
     1
  8
1
390
0
  6
Continuous
 62
     7
100
AcDbLine
 10
8.499619
 20
4.451341
 30
0.0
 11
8.506605
 21
4.448153
 31
0.0
  0
LINE
  5
35D
100
AcDbEntity
 67
     1
  8
1
390
0
  6
Continuous
 62
     7
100
AcDbLine
 10
8.506605
 20
4.448153
 30
0.0
 11
8.513849
 21
4.445163
 31
0.0
  0
LINE
  5
35E
100
AcDbEntity
 67
     1
  8
1
390
0
  6
Continuous
 62
     7
100
AcDbLine
 10
8.513849
 20
4.445163
 30
0.0
 11
8.521391
 21
4.442345
 31
0.0
  0
LINE
  5
35F
100
AcDbEntity
 67
     1
  8
1
390
0
  6
Continuous
 62
     7
100
AcDbLine
 10
8.521391
 20
4.442345
 30
0.0
 11
8.529124
 21
4.439728
 31
0.0
  0
LINE
  5
360
100
AcDbEntity
 67
     1
  8
1
390
0
  6
Continuous
 62
     7
100
AcDbLine
 10
8.529124
 20
4.439728
 30
0.0
 11
8.537127
 21
4.437278
 31
0.0
  0
LINE
  5
361
100
AcDbEntity
 67
     1
  8
1
390
0
  6
Continuous
 62
     7
100
AcDbLine
 10
8.537127
 20
4.437278
 30
0.0
 11
8.545289
 21
4.43502
 31
0.0
  0
LINE
  5
362
100
AcDbEntity
 67
     1
  8
1
390
0
  6
Continuous
 62
     7
100
AcDbLine
 10
8.545289
 20
4.43502
 30
0.0
 11
8.553688
 21
4.432928
 31
0.0
  0
LINE
  5
363
100
AcDbEntity
 67
     1
  8
1
390
0
  6
Continuous
 62
     7
100
AcDbLine
 10
8.553688
 20
4.432928
 30
0.0
 11
8.562226
 21
4.431019
 31
0.0
  0
LINE
  5
364
100
AcDbEntity
 67
     1
  8
1
390
0
  6
Continuous
 62
     7
100
AcDbLine
 10
8.562226
 20
4.431019
 30
0.0
 11
8.570968
 21
4.429276
 31
0.0
  0
LINE
  5
365
100
AcDbEntity
 67
     1
  8
1
390
0
  6
Continuous
 62
     7
100
AcDbLine
 10
8.570968
 20
4.429276
 30
0.0
 11
8.579828
 21
4.427711
 31
0.0
  0
LINE
  5
366
100
AcDbEntity
 67
     1
  8
1
390
0
  6
Continuous
 62
     7
100
AcDbLine
 10
8.579828
 20
4.427711
 30
0.0
 11
8.588856
 21
4.426312
 31
0.0
  0
LINE
  5
367
100
AcDbEntity
 67
     1
  8
1
390
0
  6
Continuous
 62
     7
100
AcDbLine
 10
8.588856
 20
4.426312
 30
0.0
 11
8.59798
 21
4.425089
 31
0.0
  0
LINE
  5
368
100
AcDbEntity
 67
     1
  8
1
390
0
  6
Continuous
 62
     7
100
AcDbLine
 10
8.59798
 20
4.425089
 30
0.0
 11
8.607236
 21
4.424035
 31
0.0
  0
LINE
  5
369
100
AcDbEntity
 67
     1
  8
1
390
0
  6
Continuous
 62
     7
100
AcDbLine
 10
8.607236
 20
4.424035
 30
0.0
 11
8.616564
 21
4.423155
 31
0.0
  0
LINE
  5
36A
100
AcDbEntity
 67
     1
  8
1
390
0
  6
Continuous
 62
     7
100
AcDbLine
 10
8.616564
 20
4.423155
 30
0.0
 11
8.625984
 21
4.422445
 31
0.0
  0
LINE
  5
36B
100
AcDbEntity
 67
     1
  8
1
390
0
  6
Continuous
 62
     7
100
AcDbLine
 10
8.625984
 20
4.422445
 30
0.0
 11
8.635451
 21
4.421908
 31
0.0
  0
LINE
  5
36C
100
AcDbEntity
 67
     1
  8
1
390
0
  6
Continuous
 62
     7
100
AcDbLine
 10
8.635451
 20
4.421908
 30
0.0
 11
8.64497
 21
4.421543
 31
0.0
  0
LINE
  5
36D
100
AcDbEntity
 67
     1
  8
1
390
0
  6
Continuous
 62
     7
100
AcDbLine
 10
8.64497
 20
4.421543
 30
0.0
 11
8.654509
 21
4.42135
 31
0.0
  0
LINE
  5
36E
100
AcDbEntity
 67
     1
  8
1
390
0
  6
Continuous
 62
     7
100
AcDbLine
 10
8.654509
 20
4.42135
 30
0.0
 11
8.66406
 21
4.421329
 31
0.0
  0
LINE
  5
36F
100
AcDbEntity
 67
     1
  8
1
390
0
  6
Continuous
 62
     7
100
AcDbLine
 10
8.66406
 20
4.421329
 30
0.0
 11
8.6736
 21
4.421481
 31
0.0
  0
LINE
  5
370
100
AcDbEntity
 67
     1
  8
1
390
0
  6
Continuous
 62
     7
100
AcDbLine
 10
8.6736
 20
4.421481
 30
0.0
 11
8.683113
 21
4.421805
 31
0.0
  0
LINE
  5
371
100
AcDbEntity
 67
     1
  8
1
390
0
  6
Continuous
 62
     7
100
AcDbLine
 10
8.683113
 20
4.421805
 30
0.0
 11
8.692586
 21
4.4223
 31
0.0
  0
LINE
  5
372
100
AcDbEntity
 67
     1
  8
1
390
0
  6
Continuous
 62
     7
100
AcDbLine
 10
8.692586
 20
4.4223
 30
0.0
 11
8.701991
 21
4.422967
 31
0.0
  0
LINE
  5
373
100
AcDbEntity
 67
     1
  8
1
390
0
  6
Continuous
 62
     7
100
AcDbLine
 10
8.701991
 20
4.422967
 30
0.0
 11
8.711327
 21
4.423804
 31
0.0
  0
LINE
  5
374
100
AcDbEntity
 67
     1
  8
1
390
0
  6
Continuous
 62
     7
100
AcDbLine
 10
8.711327
 20
4.423804
 30
0.0
 11
8.720556
 21
4.42481
 31
0.0
  0
LINE
  5
375
100
AcDbEntity
 67
     1
  8
1
390
0
  6
Continuous
 62
     7
100
AcDbLine
 10
8.720556
 20
4.42481
 30
0.0
 11
8.729688
 21
4.425988
 31
0.0
  0
LINE
  5
376
100
AcDbEntity
 67
     1
  8
1
390
0
  6
Continuous
 62
     7
100
AcDbLine
 10
8.729688
 20
4.425988
 30
0.0
 11
8.738677
 21
4.427331
 31
0.0
  0
LINE
  5
377
100
AcDbEntity
 67
     1
  8
1
390
0
  6
Continuous
 62
     7
100
AcDbLine
 10
8.738677
 20
4.427331
 30
0.0
 11
8.747544
 21
4.428846
 31
0.0
  0
LINE
  5
378
100
AcDbEntity
 67
     1
  8
1
390
0
  6
Continuous
 62
     7
100
AcDbLine
 10
8.747544
 20
4.428846
 30
0.0
 11
8.756233
 21
4.430525
 31
0.0
  0
LINE
  5
379
100
AcDbEntity
 67
     1
  8
1
390
0
  6
Continuous
 62
     7
100
AcDbLine
 10
8.756233
 20
4.430525
 30
0.0
 11
8.764778
 21
4.432377
 31
0.0
  0
LINE
  5
37A
100
AcDbEntity
 67
     1
  8
1
390
0
  6
Continuous
 62
     7
100
AcDbLine
 10
8.764778
 20
4.432377
 30
0.0
 11
8.77311
 21
4.434391
 31
0.0
  0
LINE
  5
37B
100
AcDbEntity
 67
     1
  8
1
390
0
  6
Continuous
 62
     7
100
AcDbLine
 10
8.77311
 20
4.434391
 30
0.0
 11
8.781281
 21
4.436583
 31
0.0
  0
LINE
  5
37C
100
AcDbEntity
 67
     1
  8
1
390
0
  6
Continuous
 62
     7
100
AcDbLine
 10
8.781281
 20
4.436583
 30
0.0
 11
8.789207
 21
4.438936
 31
0.0
  0
LINE
  5
37D
100
AcDbEntity
 67
     1
  8
1
390
0
  6
Continuous
 62
     7
100
AcDbLine
 10
8.789207
 20
4.438936
 30
0.0
 11
8.796957
 21
4.441476
 31
0.0
  0
LINE
  5
37E
100
AcDbEntity
 67
     1
  8
1
390
0
  6
Continuous
 62
     7
100
AcDbLine
 10
8.796957
 20
4.441476
 30
0.0
 11
8.804436
 21
4.44418
 31
0.0
  0
LINE
  5
37F
100
AcDbEntity
 67
     1
  8
1
390
0
  6
Continuous
 62
     7
100
AcDbLine
 10
8.804436
 20
4.44418
 30
0.0
 11
8.811726
 21
4.447086
 31
0.0
  0
LINE
  5
380
100
AcDbEntity
 67
     1
  8
1
390
0
  6
Continuous
 62
     7
100
AcDbLine
 10
8.811726
 20
4.447086
 30
0.0
 11
8.818717
 21
4.450164
 31
0.0
  0
LINE
  5
381
100
AcDbEntity
 67
     1
  8
1
390
0
  6
Continuous
 62
     7
100
AcDbLine
 10
8.818717
 20
4.450164
 30
0.0
 11
8.825508
 21
4.453471
 31
0.0
  0
LINE
  5
382
100
AcDbEntity
 67
     1
  8
1
390
0
  6
Continuous
 62
     7
100
AcDbLine
 10
8.825508
 20
4.453471
 30
0.0
 11
8.831977
 21
4.456966
 31
0.0
  0
LINE
  5
383
100
AcDbEntity
 67
     1
  8
1
390
0
  6
Continuous
 62
     7
100
AcDbLine
 10
8.831977
 20
4.456966
 30
0.0
 11
8.838216
 21
4.460721
 31
0.0
  0
LINE
  5
384
100
AcDbEntity
 67
     1
  8
1
390
0
  6
Continuous
 62
     7
100
AcDbLine
 10
8.838216
 20
4.460721
 30
0.0
 11
8.84411
 21
4.464696
 31
0.0
  0
LINE
  5
385
100
AcDbEntity
 67
     1
  8
1
390
0
  6
Continuous
 62
     7
100
AcDbLine
 10
8.84411
 20
4.464696
 30
0.0
 11
8.849692
 21
4.468942
 31
0.0
  0
LINE
  5
386
100
AcDbEntity
 67
     1
  8
1
390
0
  6
Continuous
 62
     7
100
AcDbLine
 10
8.849692
 20
4.468942
 30
0.0
 11
8.854902
 21
4.473453
 31
0.0
  0
LINE
  5
387
100
AcDbEntity
 67
     1
  8
1
390
0
  6
Continuous
 62
     7
100
AcDbLine
 10
8.854902
 20
4.473453
 30
0.0
 11
8.859016
 21
4.477506
 31
0.0
  0
LINE
  5
388
100
AcDbEntity
 67
     1
  8
1
390
0
  6
Continuous
 62
     7
100
AcDbLine
 10
8.859016
 20
4.477506
 30
0.0
 11
8.862831
 21
4.481784
 31
0.0
  0
LINE
  5
389
100
AcDbEntity
 67
     1
  8
1
390
0
  6
Continuous
 62
     7
100
AcDbLine
 10
8.862831
 20
4.481784
 30
0.0
 11
8.866096
 21
4.485988
 31
0.0
  0
LINE
  5
38A
100
AcDbEntity
 67
     1
  8
1
390
0
  6
Continuous
 62
     7
100
AcDbLine
 10
8.866096
 20
4.485988
 30
0.0
 11
8.869058
 21
4.490409
 31
0.0
  0
LINE
  5
38B
100
AcDbEntity
 67
     1
  8
1
390
0
  6
Continuous
 62
     7
100
AcDbLine
 10
8.869058
 20
4.490409
 30
0.0
 11
8.871541
 21
4.494766
 31
0.0
  0
LINE
  5
38C
100
AcDbEntity
 67
     1
  8
1
390
0
  6
Continuous
 62
     7
100
AcDbLine
 10
8.871541
 20
4.494766
 30
0.0
 11
8.873683
 21
4.499311
 31
0.0
  0
LINE
  5
38D
100
AcDbEntity
 67
     1
  8
1
390
0
  6
Continuous
 62
     7
100
AcDbLine
 10
8.873683
 20
4.499311
 30
0.0
 11
8.87538
 21
4.503823
 31
0.0
  0
LINE
  5
38E
100
AcDbEntity
 67
     1
  8
1
390
0
  6
Continuous
 62
     7
100
AcDbLine
 10
8.87538
 20
4.503823
 30
0.0
 11
8.876769
 21
4.508478
 31
0.0
  0
LINE
  5
38F
100
AcDbEntity
 67
     1
  8
1
390
0
  6
Continuous
 62
     7
100
AcDbLine
 10
8.876769
 20
4.508478
 30
0.0
 11
8.87791
 21
4.513595
 31
0.0
  0
LINE
  5
390
100
AcDbEntity
 67
     1
  8
1
390
0
  6
Continuous
 62
     7
100
AcDbLine
 10
8.87791
 20
4.513595
 30
0.0
 11
8.878389
 21
4.518798
 31
0.0
  0
LINE
  5
391
100
AcDbEntity
 67
     1
  8
1
390
0
  6
Continuous
 62
     7
100
AcDbLine
 10
8.878389
 20
4.518798
 30
0.0
 11
8.878382
 21
4.519616
 31
0.0
  0
LINE
  5
392
100
AcDbEntity
 67
     1
  8
1
390
0
  6
Continuous
 62
     7
100
AcDbLine
 10
8.878382
 20
4.519616
 30
0.0
 11
8.878352
 21
4.520435
 31
0.0
  0
LINE
  5
393
100
AcDbEntity
 67
     1
  8
1
390
0
  6
Continuous
 62
     7
100
AcDbLine
 10
8.714333
 20
4.791657
 30
0.0
 11
8.695501
 21
4.832087
 31
0.0
  0
LINE
  5
394
100
AcDbEntity
 67
     1
  8
1
390
0
  6
Continuous
 62
     7
100
AcDbLine
 10
8.695501
 20
4.832087
 30
0.0
 11
8.67053
 21
4.865821
 31
0.0
  0
LINE
  5
395
100
AcDbEntity
 67
     1
  8
1
390
0
  6
Continuous
 62
     7
100
AcDbLine
 10
8.715123
 20
4.613637
 30
0.0
 11
8.714584
 21
4.758727
 31
0.0
  0
LINE
  5
396
100
AcDbEntity
 67
     1
  8
1
390
0
  6
Continuous
 62
     7
100
AcDbLine
 10
8.714584
 20
4.758727
 30
0.0
 11
8.714333
 21
4.791657
 31
0.0
  0
LINE
  5
397
100
AcDbEntity
 67
     1
  8
1
390
0
  6
Continuous
 62
     7
100
AcDbLine
 10
8.724431
 20
4.61648
 30
0.0
 11
8.748228
 21
4.769006
 31
0.0
  0
LINE
  5
398
100
AcDbEntity
 67
     1
  8
1
390
0
  6
Continuous
 62
     7
100
AcDbLine
 10
8.748228
 20
4.769006
 30
0.0
 11
8.753489
 21
4.803621
 31
0.0
  0
LINE
  5
399
100
AcDbEntity
 67
     1
  8
1
390
0
  6
Continuous
 62
     7
100
AcDbLine
 10
8.753489
 20
4.803621
 30
0.0
 11
8.739992
 21
4.84568
 31
0.0
  0
LINE
  5
39A
100
AcDbEntity
 67
     1
  8
1
390
0
  6
Continuous
 62
     7
100
AcDbLine
 10
8.739992
 20
4.84568
 30
0.0
 11
8.718753
 21
4.880555
 31
0.0
  0
LINE
  5
39B
100
AcDbEntity
 67
     1
  8
1
390
0
  6
Continuous
 62
     7
100
AcDbLine
 10
8.714437
 20
4.788435
 30
0.0
 11
8.718753
 21
4.880555
 31
0.0
  0
LINE
  5
39C
100
AcDbEntity
 67
     1
  8
1
390
0
  6
Continuous
 62
     7
100
AcDbLine
 10
8.715096
 20
4.620786
 30
0.0
 11
8.724431
 21
4.61648
 31
0.0
  0
LINE
  5
39D
100
AcDbEntity
 67
     1
  8
1
390
0
  6
Continuous
 62
     7
100
AcDbLine
 10
8.715123
 20
4.613637
 30
0.0
 11
8.715244
 21
4.611946
 31
0.0
  0
LINE
  5
39E
100
AcDbEntity
 67
     1
  8
1
390
0
  6
Continuous
 62
     7
100
AcDbLine
 10
8.715244
 20
4.611946
 30
0.0
 11
8.715902
 21
4.610585
 31
0.0
  0
LINE
  5
39F
100
AcDbEntity
 67
     1
  8
1
390
0
  6
Continuous
 62
     7
100
AcDbLine
 10
8.715902
 20
4.610585
 30
0.0
 11
8.717008
 21
4.609729
 31
0.0
  0
LINE
  5
3A0
100
AcDbEntity
 67
     1
  8
1
390
0
  6
Continuous
 62
     7
100
AcDbLine
 10
8.717008
 20
4.609729
 30
0.0
 11
8.718421
 21
4.609476
 31
0.0
  0
LINE
  5
3A1
100
AcDbEntity
 67
     1
  8
1
390
0
  6
Continuous
 62
     7
100
AcDbLine
 10
8.718421
 20
4.609476
 30
0.0
 11
8.719436
 21
4.609655
 31
0.0
  0
LINE
  5
3A2
100
AcDbEntity
 67
     1
  8
1
390
0
  6
Continuous
 62
     7
100
AcDbLine
 10
8.719436
 20
4.609655
 30
0.0
 11
8.719975
 21
4.609856
 31
0.0
  0
LINE
  5
3A3
100
AcDbEntity
 67
     1
  8
1
390
0
  6
Continuous
 62
     7
100
AcDbLine
 10
8.719975
 20
4.609856
 30
0.0
 11
8.721494
 21
4.610826
 31
0.0
  0
LINE
  5
3A4
100
AcDbEntity
 67
     1
  8
1
390
0
  6
Continuous
 62
     7
100
AcDbLine
 10
8.721494
 20
4.610826
 30
0.0
 11
8.722814
 21
4.612273
 31
0.0
  0
LINE
  5
3A5
100
AcDbEntity
 67
     1
  8
1
390
0
  6
Continuous
 62
     7
100
AcDbLine
 10
8.722814
 20
4.612273
 30
0.0
 11
8.723799
 21
4.614026
 31
0.0
  0
LINE
  5
3A6
100
AcDbEntity
 67
     1
  8
1
390
0
  6
Continuous
 62
     7
100
AcDbLine
 10
8.723799
 20
4.614026
 30
0.0
 11
8.724354
 21
4.615885
 31
0.0
  0
LINE
  5
3A7
100
AcDbEntity
 67
     1
  8
1
390
0
  6
Continuous
 62
     7
100
AcDbLine
 10
8.724354
 20
4.615885
 30
0.0
 11
8.724431
 21
4.61648
 31
0.0
  0
LINE
  5
3A8
100
AcDbEntity
 67
     1
  8
1
390
0
  6
Continuous
 62
     7
100
AcDbLine
 10
8.60208
 20
4.897397
 30
0.0
 11
8.595187
 21
4.895235
 31
0.0
  0
LINE
  5
3A9
100
AcDbEntity
 67
     1
  8
1
390
0
  6
Continuous
 62
     7
100
AcDbLine
 10
8.595187
 20
4.895235
 30
0.0
 11
8.588816
 21
4.891828
 31
0.0
  0
LINE
  5
3AA
100
AcDbEntity
 67
     1
  8
1
390
0
  6
Continuous
 62
     7
100
AcDbLine
 10
8.60208
 20
4.897397
 30
0.0
 11
8.605313
 21
4.831603
 31
0.0
  0
LINE
  5
3AB
100
AcDbEntity
 67
     1
  8
1
390
0
  6
Continuous
 62
     7
100
AcDbLine
 10
8.650303
 20
4.91213
 30
0.0
 11
8.645193
 21
4.866216
 31
0.0
  0
LINE
  5
3AC
100
AcDbEntity
 67
     1
  8
1
390
0
  6
Continuous
 62
     7
100
AcDbLine
 10
8.650303
 20
4.91213
 30
0.0
 11
8.625332
 21
4.898572
 31
0.0
  0
LINE
  5
3AD
100
AcDbEntity
 67
     1
  8
1
390
0
  6
Continuous
 62
     7
100
AcDbLine
 10
8.625332
 20
4.898572
 30
0.0
 11
8.606501
 21
4.871426
 31
0.0
  0
LINE
  5
3AE
100
AcDbEntity
 67
     1
  8
1
390
0
  6
Continuous
 62
     7
100
AcDbLine
 10
8.606501
 20
4.871426
 30
0.0
 11
8.606345
 21
4.831937
 31
0.0
  0
LINE
  5
3AF
100
AcDbEntity
 67
     1
  8
1
390
0
  6
Continuous
 62
     7
100
AcDbLine
 10
8.583691
 20
4.621903
 30
0.0
 11
8.591097
 21
4.624166
 31
0.0
  0
LINE
  5
3B0
100
AcDbEntity
 67
     1
  8
1
390
0
  6
Continuous
 62
     7
100
AcDbLine
 10
8.587897
 20
4.614723
 30
0.0
 11
8.587459
 21
4.614962
 31
0.0
  0
LINE
  5
3B1
100
AcDbEntity
 67
     1
  8
1
390
0
  6
Continuous
 62
     7
100
AcDbLine
 10
8.587459
 20
4.614962
 30
0.0
 11
8.586213
 21
4.616038
 31
0.0
  0
LINE
  5
3B2
100
AcDbEntity
 67
     1
  8
1
390
0
  6
Continuous
 62
     7
100
AcDbLine
 10
8.586213
 20
4.616038
 30
0.0
 11
8.585117
 21
4.617578
 31
0.0
  0
LINE
  5
3B3
100
AcDbEntity
 67
     1
  8
1
390
0
  6
Continuous
 62
     7
100
AcDbLine
 10
8.585117
 20
4.617578
 30
0.0
 11
8.584278
 21
4.619402
 31
0.0
  0
LINE
  5
3B4
100
AcDbEntity
 67
     1
  8
1
390
0
  6
Continuous
 62
     7
100
AcDbLine
 10
8.584278
 20
4.619402
 30
0.0
 11
8.583774
 21
4.621302
 31
0.0
  0
LINE
  5
3B5
100
AcDbEntity
 67
     1
  8
1
390
0
  6
Continuous
 62
     7
100
AcDbLine
 10
8.583774
 20
4.621302
 30
0.0
 11
8.583691
 21
4.621903
 31
0.0
  0
LINE
  5
3B6
100
AcDbEntity
 67
     1
  8
1
390
0
  6
Continuous
 62
     7
100
AcDbLine
 10
8.591266
 20
4.618409
 30
0.0
 11
8.591225
 21
4.616724
 31
0.0
  0
LINE
  5
3B7
100
AcDbEntity
 67
     1
  8
1
390
0
  6
Continuous
 62
     7
100
AcDbLine
 10
8.591225
 20
4.616724
 30
0.0
 11
8.590732
 21
4.615408
 31
0.0
  0
LINE
  5
3B8
100
AcDbEntity
 67
     1
  8
1
390
0
  6
Continuous
 62
     7
100
AcDbLine
 10
8.590732
 20
4.615408
 30
0.0
 11
8.589858
 21
4.614628
 31
0.0
  0
LINE
  5
3B9
100
AcDbEntity
 67
     1
  8
1
390
0
  6
Continuous
 62
     7
100
AcDbLine
 10
8.589858
 20
4.614628
 30
0.0
 11
8.588721
 21
4.614474
 31
0.0
  0
LINE
  5
3BA
100
AcDbEntity
 67
     1
  8
1
390
0
  6
Continuous
 62
     7
100
AcDbLine
 10
8.588721
 20
4.614474
 30
0.0
 11
8.587897
 21
4.614723
 31
0.0
  0
LINE
  5
3BB
100
AcDbEntity
 67
     1
  8
1
390
0
  6
Continuous
 62
     7
100
AcDbLine
 10
8.637986
 20
4.867075
 30
0.0
 11
8.608077
 21
4.835456
 31
0.0
  0
LINE
  5
3BC
100
AcDbEntity
 67
     1
  8
1
390
0
  6
Continuous
 62
     7
100
AcDbLine
 10
8.608077
 20
4.835456
 30
0.0
 11
8.586045
 21
4.7966
 31
0.0
  0
LINE
  5
3BD
100
AcDbEntity
 67
     1
  8
1
390
0
  6
Continuous
 62
     7
100
AcDbLine
 10
8.586045
 20
4.7966
 30
0.0
 11
8.591266
 21
4.618409
 31
0.0
  0
LINE
  5
3BE
100
AcDbEntity
 67
     1
  8
1
390
0
  6
Continuous
 62
     7
100
AcDbLine
 10
8.598741
 20
4.885179
 30
0.0
 11
8.60018
 21
4.823852
 31
0.0
  0
LINE
  5
3BF
100
AcDbEntity
 67
     1
  8
1
390
0
  6
Continuous
 62
     7
100
AcDbLine
 10
8.598741
 20
4.885179
 30
0.0
 11
8.571869
 21
4.852158
 31
0.0
  0
LINE
  5
3C0
100
AcDbEntity
 67
     1
  8
1
390
0
  6
Continuous
 62
     7
100
AcDbLine
 10
8.571869
 20
4.852158
 30
0.0
 11
8.554178
 21
4.811301
 31
0.0
  0
LINE
  5
3C1
100
AcDbEntity
 67
     1
  8
1
390
0
  6
Continuous
 62
     7
100
AcDbLine
 10
8.554178
 20
4.811301
 30
0.0
 11
8.583691
 21
4.621903
 31
0.0
  0
LINE
  5
3C2
100
AcDbEntity
 67
     1
  8
1
390
0
  6
Continuous
 62
     7
100
AcDbLine
 10
8.722272
 20
4.885615
 30
0.0
 11
8.704202
 21
4.901562
 31
0.0
  0
LINE
  5
3C3
100
AcDbEntity
 67
     1
  8
1
390
0
  6
Continuous
 62
     7
100
AcDbLine
 10
8.704202
 20
4.901562
 30
0.0
 11
8.682847
 21
4.910876
 31
0.0
  0
LINE
  5
3C4
100
AcDbEntity
 67
     1
  8
1
390
0
  6
Continuous
 62
     7
100
AcDbLine
 10
8.689929
 20
4.841018
 30
0.0
 11
8.682847
 21
4.910876
 31
0.0
  0
LINE
  5
3C5
100
AcDbEntity
 67
     1
  8
1
390
0
  6
Continuous
 62
     7
100
AcDbLine
 10
8.749449
 20
4.87805
 30
0.0
 11
8.736783
 21
4.887185
 31
0.0
  0
LINE
  5
3C6
100
AcDbEntity
 67
     1
  8
1
390
0
  6
Continuous
 62
     7
100
AcDbLine
 10
8.736783
 20
4.887185
 30
0.0
 11
8.722093
 21
4.892773
 31
0.0
  0
LINE
  5
3C7
100
AcDbEntity
 67
     1
  8
1
390
0
  6
Continuous
 62
     7
100
AcDbLine
 10
8.721929
 20
4.884819
 30
0.0
 11
8.722093
 21
4.892773
 31
0.0
  0
LINE
  5
3C8
100
AcDbEntity
 67
     1
  8
1
390
0
  6
Continuous
 62
     7
100
AcDbLine
 10
8.586045
 20
4.7966
 30
0.0
 11
8.615318
 21
4.790144
 31
0.0
  0
LINE
  5
3C9
100
AcDbEntity
 67
     1
  8
1
390
0
  6
Continuous
 62
     7
100
AcDbLine
 10
8.615318
 20
4.790144
 30
0.0
 11
8.648253
 21
4.787049
 31
0.0
  0
LINE
  5
3CA
100
AcDbEntity
 67
     1
  8
1
390
0
  6
Continuous
 62
     7
100
AcDbLine
 10
8.648253
 20
4.787049
 30
0.0
 11
8.682177
 21
4.787568
 31
0.0
  0
LINE
  5
3CB
100
AcDbEntity
 67
     1
  8
1
390
0
  6
Continuous
 62
     7
100
AcDbLine
 10
8.682177
 20
4.787568
 30
0.0
 11
8.714333
 21
4.791657
 31
0.0
  0
LINE
  5
3CC
100
AcDbEntity
 67
     1
  8
1
390
0
  6
Continuous
 62
     7
100
AcDbLine
 10
8.587897
 20
4.614723
 30
0.0
 11
8.609685
 21
4.607395
 31
0.0
  0
LINE
  5
3CD
100
AcDbEntity
 67
     1
  8
1
390
0
  6
Continuous
 62
     7
100
AcDbLine
 10
8.609685
 20
4.607395
 30
0.0
 11
8.636438
 21
4.602952
 31
0.0
  0
LINE
  5
3CE
100
AcDbEntity
 67
     1
  8
1
390
0
  6
Continuous
 62
     7
100
AcDbLine
 10
8.636438
 20
4.602952
 30
0.0
 11
8.665539
 21
4.601831
 31
0.0
  0
LINE
  5
3CF
100
AcDbEntity
 67
     1
  8
1
390
0
  6
Continuous
 62
     7
100
AcDbLine
 10
8.665539
 20
4.601831
 30
0.0
 11
8.694138
 21
4.604141
 31
0.0
  0
LINE
  5
3D0
100
AcDbEntity
 67
     1
  8
1
390
0
  6
Continuous
 62
     7
100
AcDbLine
 10
8.694138
 20
4.604141
 30
0.0
 11
8.719436
 21
4.609655
 31
0.0
  0
LINE
  5
3D1
100
AcDbEntity
 67
     1
  8
1
390
0
  6
Continuous
 62
     7
100
AcDbLine
 10
8.753489
 20
4.803621
 30
0.0
 11
8.770599
 21
4.814529
 31
0.0
  0
LINE
  5
3D2
100
AcDbEntity
 67
     1
  8
1
390
0
  6
Continuous
 62
     7
100
AcDbLine
 10
8.770599
 20
4.814529
 30
0.0
 11
8.778882
 21
4.826801
 31
0.0
  0
LINE
  5
3D3
100
AcDbEntity
 67
     1
  8
1
390
0
  6
Continuous
 62
     7
100
AcDbLine
 10
8.778882
 20
4.826801
 30
0.0
 11
8.777676
 21
4.839452
 31
0.0
  0
LINE
  5
3D4
100
AcDbEntity
 67
     1
  8
1
390
0
  6
Continuous
 62
     7
100
AcDbLine
 10
8.719436
 20
4.609655
 30
0.0
 11
8.743838
 21
4.621027
 31
0.0
  0
LINE
  5
3D5
100
AcDbEntity
 67
     1
  8
1
390
0
  6
Continuous
 62
     7
100
AcDbLine
 10
8.743838
 20
4.621027
 30
0.0
 11
8.753802
 21
4.635144
 31
0.0
  0
LINE
  5
3D6
100
AcDbEntity
 67
     1
  8
1
390
0
  6
Continuous
 62
     7
100
AcDbLine
 10
8.543159
 20
4.839452
 30
0.0
 11
8.542546
 21
4.825038
 31
0.0
  0
LINE
  5
3D7
100
AcDbEntity
 67
     1
  8
1
390
0
  6
Continuous
 62
     7
100
AcDbLine
 10
8.542546
 20
4.825038
 30
0.0
 11
8.554178
 21
4.811301
 31
0.0
  0
LINE
  5
3D8
100
AcDbEntity
 67
     1
  8
1
390
0
  6
Continuous
 62
     7
100
AcDbLine
 10
8.567031
 20
4.635145
 30
0.0
 11
8.573119
 21
4.624309
 31
0.0
  0
LINE
  5
3D9
100
AcDbEntity
 67
     1
  8
1
390
0
  6
Continuous
 62
     7
100
AcDbLine
 10
8.573119
 20
4.624309
 30
0.0
 11
8.587897
 21
4.614723
 31
0.0
  0
LINE
  5
3DA
100
AcDbEntity
 67
     1
  8
1
390
0
  6
Continuous
 62
     7
100
AcDbLine
 10
8.753918
 20
4.55501
 30
0.0
 11
8.756779
 21
4.544112
 31
0.0
  0
LINE
  5
3DB
100
AcDbEntity
 67
     1
  8
1
390
0
  6
Continuous
 62
     7
100
AcDbLine
 10
8.756779
 20
4.544112
 30
0.0
 11
8.750834
 21
4.53339
 31
0.0
  0
LINE
  5
3DC
100
AcDbEntity
 67
     1
  8
1
390
0
  6
Continuous
 62
     7
100
AcDbLine
 10
8.750834
 20
4.53339
 30
0.0
 11
8.736628
 21
4.523825
 31
0.0
  0
LINE
  5
3DD
100
AcDbEntity
 67
     1
  8
1
390
0
  6
Continuous
 62
     7
100
AcDbLine
 10
8.736628
 20
4.523825
 30
0.0
 11
8.715456
 21
4.516291
 31
0.0
  0
LINE
  5
3DE
100
AcDbEntity
 67
     1
  8
1
390
0
  6
Continuous
 62
     7
100
AcDbLine
 10
8.715456
 20
4.516291
 30
0.0
 11
8.689255
 21
4.511476
 31
0.0
  0
LINE
  5
3DF
100
AcDbEntity
 67
     1
  8
1
390
0
  6
Continuous
 62
     7
100
AcDbLine
 10
8.689255
 20
4.511476
 30
0.0
 11
8.660419
 21
4.50982
 31
0.0
  0
LINE
  5
3E0
100
AcDbEntity
 67
     1
  8
1
390
0
  6
Continuous
 62
     7
100
AcDbLine
 10
8.660419
 20
4.50982
 30
0.0
 11
8.631582
 21
4.511476
 31
0.0
  0
LINE
  5
3E1
100
AcDbEntity
 67
     1
  8
1
390
0
  6
Continuous
 62
     7
100
AcDbLine
 10
8.631582
 20
4.511476
 30
0.0
 11
8.605381
 21
4.51629
 31
0.0
  0
LINE
  5
3E2
100
AcDbEntity
 67
     1
  8
1
390
0
  6
Continuous
 62
     7
100
AcDbLine
 10
8.605381
 20
4.51629
 30
0.0
 11
8.584208
 21
4.523824
 31
0.0
  0
LINE
  5
3E3
100
AcDbEntity
 67
     1
  8
1
390
0
  6
Continuous
 62
     7
100
AcDbLine
 10
8.584208
 20
4.523824
 30
0.0
 11
8.570001
 21
4.533389
 31
0.0
  0
LINE
  5
3E4
100
AcDbEntity
 67
     1
  8
1
390
0
  6
Continuous
 62
     7
100
AcDbLine
 10
8.570001
 20
4.533389
 30
0.0
 11
8.564054
 21
4.54411
 31
0.0
  0
LINE
  5
3E5
100
AcDbEntity
 67
     1
  8
1
390
0
  6
Continuous
 62
     7
100
AcDbLine
 10
8.564054
 20
4.54411
 30
0.0
 11
8.566915
 21
4.555009
 31
0.0
  0
LINE
  5
3E6
100
AcDbEntity
 67
     1
  8
1
390
0
  6
Continuous
 62
     7
100
AcDbLine
 10
8.52218
 20
4.609816
 30
0.0
 11
8.543702
 21
4.615616
 31
0.0
  0
LINE
  5
3E7
100
AcDbEntity
 67
     1
  8
1
390
0
  6
Continuous
 62
     7
100
AcDbLine
 10
8.543702
 20
4.615616
 30
0.0
 11
8.566933
 21
4.620398
 31
0.0
  0
LINE
  5
3E8
100
AcDbEntity
 67
     1
  8
1
390
0
  6
Continuous
 62
     7
100
AcDbLine
 10
8.75393
 20
4.620393
 30
0.0
 11
8.791131
 21
4.612014
 31
0.0
  0
LINE
  5
3E9
100
AcDbEntity
 67
     1
  8
1
390
0
  6
Continuous
 62
     7
100
AcDbLine
 10
8.791131
 20
4.612014
 30
0.0
 11
8.823202
 21
4.601047
 31
0.0
  0
LINE
  5
3EA
100
AcDbEntity
 67
     1
  8
1
390
0
  6
Continuous
 62
     7
100
AcDbLine
 10
8.823202
 20
4.601047
 30
0.0
 11
8.848886
 21
4.587921
 31
0.0
  0
LINE
  5
3EB
100
AcDbEntity
 67
     1
  8
1
390
0
  6
Continuous
 62
     7
100
AcDbLine
 10
8.848886
 20
4.587921
 30
0.0
 11
8.867174
 21
4.573153
 31
0.0
  0
LINE
  5
3EC
100
AcDbEntity
 67
     1
  8
1
390
0
  6
Continuous
 62
     7
100
AcDbLine
 10
8.867174
 20
4.573153
 30
0.0
 11
8.877349
 21
4.55732
 31
0.0
  0
LINE
  5
3ED
100
AcDbEntity
 67
     1
  8
1
390
0
  6
Continuous
 62
     7
100
AcDbLine
 10
8.877349
 20
4.55732
 30
0.0
 11
8.879011
 21
4.541045
 31
0.0
  0
LINE
  5
3EE
100
AcDbEntity
 67
     1
  8
1
390
0
  6
Continuous
 62
     7
100
AcDbLine
 10
8.879011
 20
4.541045
 30
0.0
 11
8.872095
 21
4.524967
 31
0.0
  0
LINE
  5
3EF
100
AcDbEntity
 67
     1
  8
1
390
0
  6
Continuous
 62
     7
100
AcDbLine
 10
8.872095
 20
4.524967
 30
0.0
 11
8.856873
 21
4.509716
 31
0.0
  0
LINE
  5
3F0
100
AcDbEntity
 67
     1
  8
1
390
0
  6
Continuous
 62
     7
100
AcDbLine
 10
8.856873
 20
4.509716
 30
0.0
 11
8.833941
 21
4.495891
 31
0.0
  0
LINE
  5
3F1
100
AcDbEntity
 67
     1
  8
1
390
0
  6
Continuous
 62
     7
100
AcDbLine
 10
8.833941
 20
4.495891
 30
0.0
 11
8.8042
 21
4.484034
 31
0.0
  0
LINE
  5
3F2
100
AcDbEntity
 67
     1
  8
1
390
0
  6
Continuous
 62
     7
100
AcDbLine
 10
8.8042
 20
4.484034
 30
0.0
 11
8.768818
 21
4.47461
 31
0.0
  0
LINE
  5
3F3
100
AcDbEntity
 67
     1
  8
1
390
0
  6
Continuous
 62
     7
100
AcDbLine
 10
8.768818
 20
4.47461
 30
0.0
 11
8.72918
 21
4.467989
 31
0.0
  0
LINE
  5
3F4
100
AcDbEntity
 67
     1
  8
1
390
0
  6
Continuous
 62
     7
100
AcDbLine
 10
8.72918
 20
4.467989
 30
0.0
 11
8.686846
 21
4.464433
 31
0.0
  0
LINE
  5
3F5
100
AcDbEntity
 67
     1
  8
1
390
0
  6
Continuous
 62
     7
100
AcDbLine
 10
8.686846
 20
4.464433
 30
0.0
 11
8.643474
 21
4.464078
 31
0.0
  0
LINE
  5
3F6
100
AcDbEntity
 67
     1
  8
1
390
0
  6
Continuous
 62
     7
100
AcDbLine
 10
8.643474
 20
4.464078
 30
0.0
 11
8.600766
 21
4.46694
 31
0.0
  0
LINE
  5
3F7
100
AcDbEntity
 67
     1
  8
1
390
0
  6
Continuous
 62
     7
100
AcDbLine
 10
8.600766
 20
4.46694
 30
0.0
 11
8.5604
 21
4.472907
 31
0.0
  0
LINE
  5
3F8
100
AcDbEntity
 67
     1
  8
1
390
0
  6
Continuous
 62
     7
100
AcDbLine
 10
8.5604
 20
4.472907
 30
0.0
 11
8.523958
 21
4.481743
 31
0.0
  0
LINE
  5
3F9
100
AcDbEntity
 67
     1
  8
1
390
0
  6
Continuous
 62
     7
100
AcDbLine
 10
8.523958
 20
4.481743
 30
0.0
 11
8.49287
 21
4.493103
 31
0.0
  0
LINE
  5
3FA
100
AcDbEntity
 67
     1
  8
1
390
0
  6
Continuous
 62
     7
100
AcDbLine
 10
8.49287
 20
4.493103
 30
0.0
 11
8.468358
 21
4.506541
 31
0.0
  0
LINE
  5
3FB
100
AcDbEntity
 67
     1
  8
1
390
0
  6
Continuous
 62
     7
100
AcDbLine
 10
8.468358
 20
4.506541
 30
0.0
 11
8.451383
 21
4.521529
 31
0.0
  0
LINE
  5
3FC
100
AcDbEntity
 67
     1
  8
1
390
0
  6
Continuous
 62
     7
100
AcDbLine
 10
8.451383
 20
4.521529
 30
0.0
 11
8.44261
 21
4.537479
 31
0.0
  0
LINE
  5
3FD
100
AcDbEntity
 67
     1
  8
1
390
0
  6
Continuous
 62
     7
100
AcDbLine
 10
8.44261
 20
4.537479
 30
0.0
 11
8.442384
 21
4.553765
 31
0.0
  0
LINE
  5
3FE
100
AcDbEntity
 67
     1
  8
1
390
0
  6
Continuous
 62
     7
100
AcDbLine
 10
8.442384
 20
4.553765
 30
0.0
 11
8.450713
 21
4.569749
 31
0.0
  0
LINE
  5
3FF
100
AcDbEntity
 67
     1
  8
1
390
0
  6
Continuous
 62
     7
100
AcDbLine
 10
8.450713
 20
4.569749
 30
0.0
 11
8.467272
 21
4.584802
 31
0.0
  0
LINE
  5
400
100
AcDbEntity
 67
     1
  8
1
390
0
  6
Continuous
 62
     7
100
AcDbLine
 10
8.467272
 20
4.584802
 30
0.0
 11
8.49141
 21
4.598335
 31
0.0
  0
LINE
  5
401
100
AcDbEntity
 67
     1
  8
1
390
0
  6
Continuous
 62
     7
100
AcDbLine
 10
8.49141
 20
4.598335
 30
0.0
 11
8.52218
 21
4.609816
 31
0.0
  0
LINE
  5
402
100
AcDbEntity
 67
     1
  8
1
390
0
  6
Continuous
 62
     7
100
AcDbLine
 10
8.699237
 20
4.043396
 30
0.0
 11
8.715959
 21
4.051389
 31
0.0
  0
LINE
  5
403
100
AcDbEntity
 67
     1
  8
1
390
0
  6
Continuous
 62
     7
100
AcDbLine
 10
8.715959
 20
4.051389
 30
0.0
 11
8.721916
 21
4.061304
 31
0.0
  0
LINE
  5
404
100
AcDbEntity
 67
     1
  8
1
390
0
  6
Continuous
 62
     7
100
AcDbLine
 10
8.598917
 20
4.061305
 30
0.0
 11
8.603204
 21
4.052834
 31
0.0
  0
LINE
  5
405
100
AcDbEntity
 67
     1
  8
1
390
0
  6
Continuous
 62
     7
100
AcDbLine
 10
8.603204
 20
4.052834
 30
0.0
 11
8.615471
 21
4.045544
 31
0.0
  0
LINE
  5
406
100
AcDbEntity
 67
     1
  8
1
390
0
  6
Continuous
 62
     7
100
AcDbLine
 10
8.615471
 20
4.045544
 30
0.0
 11
8.634007
 21
4.040452
 31
0.0
  0
LINE
  5
407
100
AcDbEntity
 67
     1
  8
1
390
0
  6
Continuous
 62
     7
100
AcDbLine
 10
8.634007
 20
4.040452
 30
0.0
 11
8.656225
 21
4.038269
 31
0.0
  0
LINE
  5
408
100
AcDbEntity
 67
     1
  8
1
390
0
  6
Continuous
 62
     7
100
AcDbLine
 10
8.656225
 20
4.038269
 30
0.0
 11
8.679029
 21
4.039298
 31
0.0
  0
LINE
  5
409
100
AcDbEntity
 67
     1
  8
1
390
0
  6
Continuous
 62
     7
100
AcDbLine
 10
8.679029
 20
4.039298
 30
0.0
 11
8.699237
 21
4.043396
 31
0.0
  0
LINE
  5
40A
100
AcDbEntity
 67
     1
  8
1
390
0
  6
Continuous
 62
     7
100
AcDbLine
 10
8.878471
 20
4.52039
 30
0.0
 11
8.873757
 21
4.504584
 31
0.0
  0
LINE
  5
40B
100
AcDbEntity
 67
     1
  8
1
390
0
  6
Continuous
 62
     7
100
AcDbLine
 10
8.873757
 20
4.504584
 30
0.0
 11
8.860992
 21
4.489419
 31
0.0
  0
LINE
  5
40C
100
AcDbEntity
 67
     1
  8
1
390
0
  6
Continuous
 62
     7
100
AcDbLine
 10
8.860992
 20
4.489419
 30
0.0
 11
8.840656
 21
4.475465
 31
0.0
  0
LINE
  5
40D
100
AcDbEntity
 67
     1
  8
1
390
0
  6
Continuous
 62
     7
100
AcDbLine
 10
8.840656
 20
4.475465
 30
0.0
 11
8.813519
 21
4.463252
 31
0.0
  0
LINE
  5
40E
100
AcDbEntity
 67
     1
  8
1
390
0
  6
Continuous
 62
     7
100
AcDbLine
 10
8.813519
 20
4.463252
 30
0.0
 11
8.780602
 21
4.453239
 31
0.0
  0
LINE
  5
40F
100
AcDbEntity
 67
     1
  8
1
390
0
  6
Continuous
 62
     7
100
AcDbLine
 10
8.780602
 20
4.453239
 30
0.0
 11
8.743151
 21
4.445804
 31
0.0
  0
LINE
  5
410
100
AcDbEntity
 67
     1
  8
1
390
0
  6
Continuous
 62
     7
100
AcDbLine
 10
8.743151
 20
4.445804
 30
0.0
 11
8.702577
 21
4.441228
 31
0.0
  0
LINE
  5
411
100
AcDbEntity
 67
     1
  8
1
390
0
  6
Continuous
 62
     7
100
AcDbLine
 10
8.702577
 20
4.441228
 30
0.0
 11
8.660411
 21
4.439683
 31
0.0
  0
LINE
  5
412
100
AcDbEntity
 67
     1
  8
1
390
0
  6
Continuous
 62
     7
100
AcDbLine
 10
8.660411
 20
4.439683
 30
0.0
 11
8.618246
 21
4.441228
 31
0.0
  0
LINE
  5
413
100
AcDbEntity
 67
     1
  8
1
390
0
  6
Continuous
 62
     7
100
AcDbLine
 10
8.618246
 20
4.441228
 30
0.0
 11
8.577672
 21
4.445806
 31
0.0
  0
LINE
  5
414
100
AcDbEntity
 67
     1
  8
1
390
0
  6
Continuous
 62
     7
100
AcDbLine
 10
8.577672
 20
4.445806
 30
0.0
 11
8.540221
 21
4.453241
 31
0.0
  0
LINE
  5
415
100
AcDbEntity
 67
     1
  8
1
390
0
  6
Continuous
 62
     7
100
AcDbLine
 10
8.540221
 20
4.453241
 30
0.0
 11
8.507307
 21
4.463255
 31
0.0
  0
LINE
  5
416
100
AcDbEntity
 67
     1
  8
1
390
0
  6
Continuous
 62
     7
100
AcDbLine
 10
8.507307
 20
4.463255
 30
0.0
 11
8.48017
 21
4.475469
 31
0.0
  0
LINE
  5
417
100
AcDbEntity
 67
     1
  8
1
390
0
  6
Continuous
 62
     7
100
AcDbLine
 10
8.48017
 20
4.475469
 30
0.0
 11
8.459837
 21
4.489422
 31
0.0
  0
LINE
  5
418
100
AcDbEntity
 67
     1
  8
1
390
0
  6
Continuous
 62
     7
100
AcDbLine
 10
8.459837
 20
4.489422
 30
0.0
 11
8.447073
 21
4.504588
 31
0.0
  0
LINE
  5
419
100
AcDbEntity
 67
     1
  8
1
390
0
  6
Continuous
 62
     7
100
AcDbLine
 10
8.447073
 20
4.504588
 30
0.0
 11
8.442362
 21
4.520394
 31
0.0
  0
LINE
  5
41A
100
AcDbEntity
 67
     1
  8
1
390
0
  6
Continuous
 62
     7
100
AcDbLine
 10
8.719436
 20
4.521604
 30
0.0
 11
8.738017
 21
4.529248
 31
0.0
  0
LINE
  5
41B
100
AcDbEntity
 67
     1
  8
1
390
0
  6
Continuous
 62
     7
100
AcDbLine
 10
8.738017
 20
4.529248
 30
0.0
 11
8.749854
 21
4.538594
 31
0.0
  0
LINE
  5
41C
100
AcDbEntity
 67
     1
  8
1
390
0
  6
Continuous
 62
     7
100
AcDbLine
 10
8.749854
 20
4.538594
 30
0.0
 11
8.753917
 21
4.54883
 31
0.0
  0
LINE
  5
41D
100
AcDbEntity
 67
     1
  8
1
390
0
  6
Continuous
 62
     7
100
AcDbLine
 10
8.566916
 20
4.548831
 30
0.0
 11
8.57172
 21
4.537723
 31
0.0
  0
LINE
  5
41E
100
AcDbEntity
 67
     1
  8
1
390
0
  6
Continuous
 62
     7
100
AcDbLine
 10
8.57172
 20
4.537723
 30
0.0
 11
8.58564
 21
4.527756
 31
0.0
  0
LINE
  5
41F
100
AcDbEntity
 67
     1
  8
1
390
0
  6
Continuous
 62
     7
100
AcDbLine
 10
8.58564
 20
4.527756
 30
0.0
 11
8.607247
 21
4.519955
 31
0.0
  0
LINE
  5
420
100
AcDbEntity
 67
     1
  8
1
390
0
  6
Continuous
 62
     7
100
AcDbLine
 10
8.607247
 20
4.519955
 30
0.0
 11
8.634319
 21
4.515122
 31
0.0
  0
LINE
  5
421
100
AcDbEntity
 67
     1
  8
1
390
0
  6
Continuous
 62
     7
100
AcDbLine
 10
8.634319
 20
4.515122
 30
0.0
 11
8.664074
 21
4.513754
 31
0.0
  0
LINE
  5
422
100
AcDbEntity
 67
     1
  8
1
390
0
  6
Continuous
 62
     7
100
AcDbLine
 10
8.664074
 20
4.513754
 30
0.0
 11
8.693453
 21
4.515991
 31
0.0
  0
LINE
  5
423
100
AcDbEntity
 67
     1
  8
1
390
0
  6
Continuous
 62
     7
100
AcDbLine
 10
8.693453
 20
4.515991
 30
0.0
 11
8.719436
 21
4.521604
 31
0.0
  0
LINE
  5
424
100
AcDbEntity
 67
     1
  8
1
390
0
  6
Continuous
 62
     7
100
AcDbLine
 10
8.650303
 20
4.91213
 30
0.0
 11
8.666798
 21
4.912317
 31
0.0
  0
LINE
  5
425
100
AcDbEntity
 67
     1
  8
1
390
0
  6
Continuous
 62
     7
100
AcDbLine
 10
8.666798
 20
4.912317
 30
0.0
 11
8.682847
 21
4.910876
 31
0.0
  0
LINE
  5
426
100
AcDbEntity
 67
     1
  8
1
390
0
  6
Continuous
 62
     7
100
AcDbLine
 10
8.598741
 20
4.885179
 30
0.0
 11
8.598244
 21
4.891371
 31
0.0
  0
LINE
  5
427
100
AcDbEntity
 67
     1
  8
1
390
0
  6
Continuous
 62
     7
100
AcDbLine
 10
8.598244
 20
4.891371
 30
0.0
 11
8.60208
 21
4.897397
 31
0.0
  0
LINE
  5
428
100
AcDbEntity
 67
     1
  8
1
390
0
  6
Continuous
 62
     7
100
AcDbLine
 10
8.67053
 20
4.865821
 30
0.0
 11
8.654036
 21
4.865634
 31
0.0
  0
LINE
  5
429
100
AcDbEntity
 67
     1
  8
1
390
0
  6
Continuous
 62
     7
100
AcDbLine
 10
8.654036
 20
4.865634
 30
0.0
 11
8.637986
 21
4.867075
 31
0.0
  0
LINE
  5
42A
100
AcDbEntity
 67
     1
  8
1
390
0
  6
Continuous
 62
     7
100
AcDbLine
 10
8.722093
 20
4.892773
 30
0.0
 11
8.72259
 21
4.88658
 31
0.0
  0
LINE
  5
42B
100
AcDbEntity
 67
     1
  8
1
390
0
  6
Continuous
 62
     7
100
AcDbLine
 10
8.72259
 20
4.88658
 30
0.0
 11
8.718753
 21
4.880555
 31
0.0
  0
CIRCLE
  5
42C
100
AcDbEntity
 67
     1
  8
1
390
0
  6
Continuous
 62
     7
100
AcDbCircle
 10
1.048015
 20
6.393961
 30
0.0
 40
0.045
  0
CIRCLE
  5
42D
100
AcDbEntity
 67
     1
  8
1
390
0
  6
Continuous
 62
     7
100
AcDbCircle
 10
2.849798
 20
6.4178
 30
0.0
 40
0.045
  0
CIRCLE
  5
42E
100
AcDbEntity
 67
     1
  8
1
390
0
  6
Continuous
 62
     7
100
AcDbCircle
 10
1.688095
 20
6.754676
 30
0.0
 40
0.219
  0
CIRCLE
  5
42F
100
AcDbEntity
 67
     1
  8
1
390
0
  6
Continuous
 62
     7
100
AcDbCircle
 10
1.688095
 20
6.754676
 30
0.0
 40
0.0615
  0
CIRCLE
  5
430
100
AcDbEntity
 67
     1
  8
1
390
0
  6
Continuous
 62
     7
100
AcDbCircle
 10
1.688095
 20
6.754676
 30
0.0
 40
0.190874
  0
ARC
  5
431
100
AcDbEntity
 67
     1
  8
1
390
0
  6
Continuous
 62
     7
100
AcDbCircle
 10
4.072803
 20
6.56758
 30
0.0
 40
0.031
100
AcDbArc
 50
187.0
 51
268.0
  0
ARC
  5
432
100
AcDbEntity
 67
     1
  8
1
390
0
  6
Continuous
 62
     7
100
AcDbCircle
 10
4.072803
 20
6.941772
 30
0.0
 40
0.031
100
AcDbArc
 50
92.0
 51
173.0
  0
ARC
  5
433
100
AcDbEntity
 67
     1
  8
1
390
0
  6
Continuous
 62
     7
100
AcDbCircle
 10
4.101149
 20
6.851176
 30
0.0
 40
0.003
100
AcDbArc
 50
180.0
 51
270.0
  0
ARC
  5
434
100
AcDbEntity
 67
     1
  8
1
390
0
  6
Continuous
 62
     7
100
AcDbCircle
 10
4.101149
 20
6.658176
 30
0.0
 40
0.003
100
AcDbArc
 50
90.0
 51
180.0
  0
ARC
  5
435
100
AcDbEntity
 67
     1
  8
1
390
0
  6
Continuous
 62
     7
100
AcDbCircle
 10
8.660417
 20
4.783323
 30
0.0
 40
0.13
100
AcDbArc
 50
25.579466
 51
46.774894
  0
ARC
  5
436
100
AcDbEntity
 67
     1
  8
1
390
0
  6
Continuous
 62
     7
100
AcDbCircle
 10
8.660417
 20
4.783323
 30
0.0
 40
0.13
100
AcDbArc
 50
123.420198
 51
154.420534
  0
MTEXT
  5
437
100
AcDbEntity
 67
     1
  8
1
390
0
  6
Continuous
 62
     7
100
AcDbMText
 10
6.757914
 20
2.025605
 30
0.0
 40
0.335
 41
0.0
 71
     7
 72
     5
  1
\W01.000;\Fsimplex.shx;P
  7
blockfont
210
0.0
220
0.0
230
1.0
 73
     2
 44
0.903614
  0
MTEXT
  5
439
100
AcDbEntity
 67
     1
  8
1
390
0
  6
Continuous
 62
     7
100
AcDbMText
 10
10.497985
 20
0.386095
 30
0.0
 40
0.15
 41
0.0
 71
     7
 72
     5
  1
\W01.000;\Fsimplex.shx;A
  7
blockfont
210
0.0
220
0.0
230
1.0
 73
     2
 44
0.903614
  0
MTEXT
  5
43A
100
AcDbEntity
 67
     1
  8
1
390
0
  6
Continuous
 62
     7
100
AcDbMText
 10
0.739986
 20
8.01633
 30
0.0
 40
0.07
 41
0.0
 71
     7
 72
     5
  1
\W01.000;\Fsimplex.shx;THIS COPY IS PROVIDED ON A RESTRICTED BASIS AND IS NOT TO BE USED IN ANY WAY DETRIMENTAL TO THE INTERESTS OF PANDUIT CORP.
  7
blockfont
210
0.0
220
0.0
230
1.0
 73
     2
 44
0.903614
  0
MTEXT
  5
43B
100
AcDbEntity
 67
     1
  8
1
390
0
  6
Continuous
 62
     7
100
AcDbMText
 10
5.902741
 20
0.313717
 30
0.0
 40
0.06
 41
0.0
 71
     7
 72
     5
  1
\W01.000;\Fsimplex.shx;SUP
  7
blockfont
210
0.0
220
0.0
230
1.0
 73
     2
 44
0.903614
  0
MTEXT
  5
43C
100
AcDbEntity
 67
     1
  8
1
390
0
  6
Continuous
 62
     7
100
AcDbMText
 10
5.484068
 20
0.313888
 30
0.0
 40
0.06
 41
0.0
 71
     7
 72
     5
  1
\W01.000;\Fsimplex.shx;CUST
  7
blockfont
210
0.0
220
0.0
230
1.0
 73
     2
 44
0.903614
  0
MTEXT
  5
43D
100
AcDbEntity
 67
     1
  8
1
390
0
  6
Continuous
 62
     7
100
AcDbMText
 10
5.233491
 20
0.311662
 30
0.0
 40
0.06
 41
0.0
 71
     7
 72
     5
  1
\W01.000;\Fsimplex.shx;R
  7
blockfont
210
0.0
220
0.0
230
1.0
 73
     2
 44
0.903614
  0
MTEXT
  5
43E
100
AcDbEntity
 67
     1
  8
1
390
0
  6
Continuous
 62
     7
100
AcDbMText
 10
5.05061
 20
0.311662
 30
0.0
 40
0.06
 41
0.0
 71
     7
 72
     5
  1
\W01.000;\Fsimplex.shx;-
  7
blockfont
210
0.0
220
0.0
230
1.0
 73
     2
 44
0.903614
  0
MTEXT
  5
43F
100
AcDbEntity
 67
     1
  8
1
390
0
  6
Continuous
 62
     7
100
AcDbMText
 10
4.725341
 20
0.313684
 30
0.0
 40
0.06
 41
0.0
 71
     7
 72
     5
  1
\W01.000;\Fsimplex.shx;ECN
  7
blockfont
210
0.0
220
0.0
230
1.0
 73
     2
 44
0.903614
  0
MTEXT
  5
440
100
AcDbEntity
 67
     1
  8
1
390
0
  6
Continuous
 62
     7
100
AcDbMText
 10
2.764402
 20
0.31398
 30
0.0
 40
0.06
 41
0.0
 71
     7
 72
     5
  1
\W01.000;\Fsimplex.shx;DESCRIPTION
  7
blockfont
210
0.0
220
0.0
230
1.0
 73
     2
 44
0.903614
  0
MTEXT
  5
441
100
AcDbEntity
 67
     1
  8
1
390
0
  6
Continuous
 62
     7
100
AcDbMText
 10
1.488175
 20
0.312812
 30
0.0
 40
0.06
 41
0.0
 71
     7
 72
     5
  1
\W01.000;\Fsimplex.shx;CHK
  7
blockfont
210
0.0
220
0.0
230
1.0
 73
     2
 44
0.903614
  0
MTEXT
  5
442
100
AcDbEntity
 67
     1
  8
1
390
0
  6
Continuous
 62
     7
100
AcDbMText
 10
1.179209
 20
0.312812
 30
0.0
 40
0.06
 41
0.0
 71
     7
 72
     5
  1
\W01.000;\Fsimplex.shx;BY
  7
blockfont
210
0.0
220
0.0
230
1.0
 73
     2
 44
0.903614
  0
MTEXT
  5
443
100
AcDbEntity
 67
     1
  8
1
390
0
  6
Continuous
 62
     7
100
AcDbMText
 10
0.737628
 20
0.312812
 30
0.0
 40
0.06
 41
0.0
 71
     7
 72
     5
  1
\W01.000;\Fsimplex.shx;DATE
  7
blockfont
210
0.0
220
0.0
230
1.0
 73
     2
 44
0.903614
  0
MTEXT
  5
444
100
AcDbEntity
 67
     1
  8
1
390
0
  6
Continuous
 62
     7
100
AcDbMText
 10
0.399145
 20
0.312812
 30
0.0
 40
0.06
 41
0.0
 71
     7
 72
     5
  1
\W01.000;\Fsimplex.shx;REV
  7
blockfont
210
0.0
220
0.0
230
1.0
 73
     2
 44
0.903614
  0
MTEXT
  5
445
100
AcDbEntity
 67
     1
  8
1
390
0
  6
Continuous
 62
     7
100
AcDbMText
 10
9.18755
 20
2.111021
 30
0.0
 40
0.057
 41
0.0
 71
     7
 72
     5
  1
\W01.000;\Fsimplex.shx;TINLEY PARK, ILLINOIS
  7
blockfont
210
0.0
220
0.0
230
1.0
 73
     2
 44
0.903614
  0
MTEXT
  5
446
100
AcDbEntity
 67
     1
  8
1
390
0
  6
Continuous
 62
     7
100
AcDbMText
 10
8.664403
 20
2.104694
 30
0.0
 40
0.075
 41
0.0
 71
     7
 72
     5
  1
\W01.000;\Fsimplex.shx;CORP.
  7
blockfont
210
0.0
220
0.0
230
1.0
 73
     2
 44
0.903614
  0
MTEXT
  5
447
100
AcDbEntity
 67
     1
  8
1
390
0
  6
Continuous
 62
     7
100
AcDbMText
 10
9.204261
 20
1.095949
 30
0.0
 40
0.0375
 41
0.0
 71
     7
 72
     5
  1
\W01.000;\Fsimplex.shx;IN INCHES, THIRD ANGLE PROJECTION.
  7
blockfont
210
0.0
220
0.0
230
1.0
 73
     2
 44
0.903614
  0
MTEXT
  5
448
100
AcDbEntity
 67
     1
  8
1
390
0
  6
Continuous
 62
     7
100
AcDbMText
 10
6.987552
 20
2.048097
 30
0.0
 40
0.262
 41
0.0
 71
     7
 72
     5
  1
\W01.000;\Fsimplex.shx;ANDUIT
  7
blockfont
210
0.0
220
0.0
230
1.0
 73
     2
 44
0.903614
  0
MTEXT
  5
449
100
AcDbEntity
 67
     1
  8
1
390
0
  6
Continuous
 62
     7
100
AcDbMText
 10
6.810761
 20
1.393264
 30
0.0
 40
0.06
 41
0.0
 71
     7
 72
     5
  1
\W01.000;\Fsimplex.shx;UNLESS OTHERWISE SPECIFIED,
  7
blockfont
210
0.0
220
0.0
230
1.0
 73
     2
 44
0.903614
  0
MTEXT
  5
44A
100
AcDbEntity
 67
     1
  8
1
390
0
  6
Continuous
 62
     7
100
AcDbMText
 10
6.810761
 20
1.288264
 30
0.0
 40
0.06
 41
0.0
 71
     7
 72
     5
  1
\W01.000;\Fsimplex.shx;DIMENSIONAL TOLERANCES ARE:
  7
blockfont
210
0.0
220
0.0
230
1.0
 73
     2
 44
0.903614
  0
MTEXT
  5
44B
100
AcDbEntity
 67
     1
  8
1
390
0
  6
Continuous
 62
     7
100
AcDbMText
 10
6.82375
 20
1.162539
 30
0.0
 40
0.06
 41
0.0
 71
     7
 72
     5
  1
\W01.000;\Fsimplex.shx;(.X)
  7
blockfont
210
0.0
220
0.0
230
1.0
 73
     2
 44
0.903614
  0
MTEXT
  5
44C
100
AcDbEntity
 67
     1
  8
1
390
0
  6
Continuous
 62
     7
100
AcDbMText
 10
7.776685
 20
1.0641
 30
0.0
 40
0.06
 41
0.0
 71
     7
 72
     5
  1
\W01.000;\Fsimplex.shx;ANGLES
  7
blockfont
210
0.0
220
0.0
230
1.0
 73
     2
 44
0.903614
  0
MTEXT
  5
44D
100
AcDbEntity
 67
     1
  8
1
390
0
  6
Continuous
 62
     7
100
AcDbMText
 10
7.781071
 20
1.163041
 30
0.0
 40
0.06
 41
0.0
 71
     7
 72
     5
  1
\W01.000;\Fsimplex.shx;(.XXX)
  7
blockfont
210
0.0
220
0.0
230
1.0
 73
     2
 44
0.903614
  0
MTEXT
  5
44E
100
AcDbEntity
 67
     1
  8
1
390
0
  6
Continuous
 62
     7
100
AcDbMText
 10
6.822075
 20
1.061687
 30
0.0
 40
0.06
 41
0.0
 71
     7
 72
     5
  1
\W01.000;\Fsimplex.shx;(.XX)
  7
blockfont
210
0.0
220
0.0
230
1.0
 73
     2
 44
0.903614
  0
MTEXT
  5
44F
100
AcDbEntity
 67
     1
  8
1
390
0
  6
Continuous
 62
     7
100
AcDbMText
 10
7.416995
 20
0.878284
 30
0.0
 40
0.06
 41
0.0
 71
     7
 72
     5
  1
\W01.000;\Fsimplex.shx;MAT'L;
  7
blockfont
210
0.0
220
0.0
230
1.0
 73
     2
 44
0.903614
  0
MTEXT
  5
450
100
AcDbEntity
 67
     1
  8
1
390
0
  6
Continuous
 62
     7
100
AcDbMText
 10
6.633387
 20
0.928171
 30
0.0
 40
0.0375
 41
0.0
 71
     7
 72
     5
  1
\W01.000;\Fsimplex.shx;DRAWN BY
  7
blockfont
210
0.0
220
0.0
230
1.0
 73
     2
 44
0.903614
  0
MTEXT
  5
451
100
AcDbEntity
 67
     1
  8
1
390
0
  6
Continuous
 62
     7
100
AcDbMText
 10
6.636168
 20
0.679611
 30
0.0
 40
0.0375
 41
0.0
 71
     7
 72
     5
  1
\W01.000;\Fsimplex.shx;DATE
  7
blockfont
210
0.0
220
0.0
230
1.0
 73
     2
 44
0.903614
  0
MTEXT
  5
452
100
AcDbEntity
 67
     1
  8
1
390
0
  6
Continuous
 62
     7
100
AcDbMText
 10
6.637593
 20
0.435878
 30
0.0
 40
0.0375
 41
0.0
 71
     7
 72
     5
  1
\W01.000;\Fsimplex.shx;CHK'D
  7
blockfont
210
0.0
220
0.0
230
1.0
 73
     2
 44
0.903614
  0
MTEXT
  5
453
100
AcDbEntity
 67
     1
  8
1
390
0
  6
Continuous
 62
     7
100
AcDbMText
 10
6.622608
 20
2.722142
 30
0.0
 40
0.0375
 41
0.0
 71
     7
 72
     5
  1
\W01.000;\Fsimplex.shx;CAD FILENAME/LAYERS
  7
blockfont
210
0.0
220
0.0
230
1.0
 73
     2
 44
0.903614
  0
MTEXT
  5
454
100
AcDbEntity
 67
     1
  8
1
390
0
  6
Continuous
 62
     7
100
AcDbMText
 10
9.219214
 20
0.924638
 30
0.0
 40
0.0375
 41
0.0
 71
     7
 72
     5
  1
\W01.000;\Fsimplex.shx;SCALE
  7
blockfont
210
0.0
220
0.0
230
1.0
 73
     2
 44
0.903614
  0
MTEXT
  5
455
100
AcDbEntity
 67
     1
  8
1
390
0
  6
Continuous
 62
     7
100
AcDbMText
 10
9.218357
 20
0.679641
 30
0.0
 40
0.0375
 41
0.0
 71
     7
 72
     5
  1
\W01.000;\Fsimplex.shx;DRAWING NO.
  7
blockfont
210
0.0
220
0.0
230
1.0
 73
     2
 44
0.903614
  0
MTEXT
  5
456
100
AcDbEntity
 67
     1
  8
1
390
0
  6
Continuous
 62
     7
100
AcDbMText
 10
10.485696
 20
0.647452
 30
0.0
 40
0.0375
 41
0.0
 71
     7
 72
     5
  1
\W01.000;\Fsimplex.shx;DWG
  7
blockfont
210
0.0
220
0.0
230
1.0
 73
     2
 44
0.903614
  0
MTEXT
  5
457
100
AcDbEntity
 67
     1
  8
1
390
0
  6
Continuous
 62
     7
100
AcDbMText
 10
10.465188
 20
0.305887
 30
0.0
 40
0.0375
 41
0.0
 71
     7
 72
     5
  1
\W01.000;\Fsimplex.shx;SIZE
  7
blockfont
210
0.0
220
0.0
230
1.0
 73
     2
 44
0.903614
  0
MTEXT
  5
458
100
AcDbEntity
 67
     1
  8
1
390
0
  6
Continuous
 62
     7
100
AcDbMText
 10
9.220875
 20
1.412478
 30
0.0
 40
0.0375
 41
0.0
 71
     7
 72
     5
  1
\W01.000;\Fsimplex.shx;UNLESS OTHERWISE SPECIFIED,
  7
blockfont
210
0.0
220
0.0
230
1.0
 73
     2
 44
0.903614
  0
MTEXT
  5
459
100
AcDbEntity
 67
     1
  8
1
390
0
  6
Continuous
 62
     7
100
AcDbMText
 10
9.22022
 20
1.251896
 30
0.0
 40
0.0375
 41
0.0
 71
     7
 72
     5
  1
\W01.000;\Fsimplex.shx;ALL DIMENSIONS ARE GIVEN
  7
blockfont
210
0.0
220
0.0
230
1.0
 73
     2
 44
0.903614
  0
MTEXT
  5
45A
100
AcDbEntity
 67
     1
  8
1
390
0
  6
Continuous
 62
     7
100
AcDbMText
 10
0.457562
 20
0.57575
 30
0.0
 40
0.072
 41
0.0
 71
     7
 72
     5
  1
\W01.000;\Fsimplex.shx;R
  7
blockfont
210
0.0
220
0.0
230
1.0
 73
     2
 44
0.903614
  0
MTEXT
  5
45B
100
AcDbEntity
 67
     1
  8
1
390
0
  6
Continuous
 62
     7
100
AcDbMText
 10
0.711109
 20
0.593854
 30
0.0
 40
0.05
 41
0.0
 71
     7
 72
     5
  1
\W01.000;\Fsimplex.shx;10-3-06
  7
blockfont
210
0.0
220
0.0
230
1.0
 73
     2
 44
0.903614
  0
MTEXT
  5
45C
100
AcDbEntity
 67
     1
  8
1
390
0
  6
Continuous
 62
     7
100
AcDbMText
 10
1.143
 20
0.57575
 30
0.0
 40
0.072
 41
0.0
 71
     7
 72
     5
  1
\W01.000;\Fsimplex.shx;JCST
  7
blockfont
210
0.0
220
0.0
230
1.0
 73
     2
 44
0.903614
  0
MTEXT
  5
45D
100
AcDbEntity
 67
     1
  8
1
390
0
  6
Continuous
 62
     7
100
AcDbMText
 10
1.778
 20
0.62975
 30
0.0
 40
0.072
 41
0.0
 71
     7
 72
     5
  1
\W01.000;\Fsimplex.shx;B. DRAWING RELEASED TO PRODUCTION
  7
blockfont
210
0.0
220
0.0
230
1.0
 73
     2
 44
0.903614
  0
MTEXT
  5
45E
100
AcDbEntity
 67
     1
  8
1
390
0
  6
Continuous
 62
     7
100
AcDbMText
 10
1.778
 20
0.52175
 30
0.0
 40
0.072
 41
0.0
 71
     7
 72
     5
  1
\W01.000;\Fsimplex.shx;A. REVISED AND REDRAWN
  7
blockfont
210
0.0
220
0.0
230
1.0
 73
     2
 44
0.903614
  0
MTEXT
  5
45F
100
AcDbEntity
 67
     1
  8
1
390
0
  6
Continuous
 62
     7
100
AcDbMText
 10
3.4976
 20
0.529887
 30
0.0
 40
0.0468
 41
0.0
 71
     7
 72
     5
  1
\W01.000;\Fsimplex.shx; - WAS DWG # D-191
  7
blockfont
210
0.0
220
0.0
230
1.0
 73
     2
 44
0.903614
  0
MTEXT
  5
460
100
AcDbEntity
 67
     1
  8
1
390
0
  6
Continuous
 62
     7
100
AcDbMText
 10
4.555446
 20
0.58151
 30
0.0
 40
0.065
 41
0.0
 71
     7
 72
     5
  1
\W01.000;\Fsimplex.shx;36401-09
  7
blockfont
210
0.0
220
0.0
230
1.0
 73
     2
 44
0.903614
  0
MTEXT
  5
461
100
AcDbEntity
 67
     1
  8
1
390
0
  6
Continuous
 62
     7
100
AcDbMText
 10
5.192375
 20
0.57575
 30
0.0
 40
0.072
 41
0.0
 71
     7
 72
     5
  1
\W01.000;\Fsimplex.shx;JKG
  7
blockfont
210
0.0
220
0.0
230
1.0
 73
     2
 44
0.903614
  0
MTEXT
  5
462
100
AcDbEntity
 67
     1
  8
1
390
0
  6
Continuous
 62
     7
100
AcDbMText
 10
8.115641
 20
2.603469
 30
0.0
 40
0.093
 41
0.0
 71
     7
 72
     5
  1
\W01.000;\Fsimplex.shx;D36401BA_DC_NR1/01F
  7
blockfont
210
0.0
220
0.0
230
1.0
 73
     2
 44
0.903614
  0
MTEXT
  5
463
100
AcDbEntity
 67
     1
  8
1
390
0
  6
Continuous
 62
     7
100
AcDbMText
 10
7.882422
 20
1.770885
 30
0.0
 40
0.125
 41
0.0
 71
     7
 72
     5
  1
\W01.000;\Fsimplex.shx;PUSH RIVET
  7
blockfont
210
0.0
220
0.0
230
1.0
 73
     2
 44
0.903614
  0
MTEXT
  5
464
100
AcDbEntity
 67
     1
  8
1
390
0
  6
Continuous
 62
     7
100
AcDbMText
 10
8.222265
 20
1.583385
 30
0.0
 40
0.125
 41
0.0
 71
     7
 72
     5
  1
\W01.000;\Fsimplex.shx;(NR1)
  7
blockfont
210
0.0
220
0.0
230
1.0
 73
     2
 44
0.903614
  0
MTEXT
  5
465
100
AcDbEntity
 67
     1
  8
1
390
0
  6
Continuous
 62
     7
100
AcDbMText
 10
7.544578
 20
1.158156
 30
0.0
 40
0.063
 41
0.0
 71
     7
 72
     5
  1
\W01.000;\Fsimplex.shx; 
  7
blockfont
210
0.0
220
0.0
230
1.0
 73
     2
 44
0.903614
  0
MTEXT
  5
466
100
AcDbEntity
 67
     1
  8
1
390
0
  6
Continuous
 62
     7
100
AcDbMText
 10
7.544578
 20
1.068156
 30
0.0
 40
0.063
 41
0.0
 71
     7
 72
     5
  1
\W01.000;\Fsimplex.shx; 
  7
blockfont
210
0.0
220
0.0
230
1.0
 73
     2
 44
0.903614
  0
MTEXT
  5
467
100
AcDbEntity
 67
     1
  8
1
390
0
  6
Continuous
 62
     7
100
AcDbMText
 10
8.370003
 20
1.158156
 30
0.0
 40
0.063
 41
0.0
 71
     7
 72
     5
  1
\W01.000;\Fsimplex.shx;.020 [.5]
  7
blockfont
210
0.0
220
0.0
230
1.0
 73
     2
 44
0.903614
  0
MTEXT
  5
468
100
AcDbEntity
 67
     1
  8
1
390
0
  6
Continuous
 62
     7
100
AcDbMText
 10
8.644578
 20
1.068156
 30
0.0
 40
0.063
 41
0.0
 71
     7
 72
     5
  1
\W01.000;\Fsimplex.shx; 
  7
blockfont
210
0.0
220
0.0
230
1.0
 73
     2
 44
0.903614
  0
MTEXT
  5
469
100
AcDbEntity
 67
     1
  8
1
390
0
  6
Continuous
 62
     7
100
AcDbMText
 10
6.775
 20
0.79075
 30
0.0
 40
0.072
 41
0.0
 71
     7
 72
     5
  1
\W01.000;\Fsimplex.shx;JCST
  7
blockfont
210
0.0
220
0.0
230
1.0
 73
     2
 44
0.903614
  0
MTEXT
  5
46A
100
AcDbEntity
 67
     1
  8
1
390
0
  6
Continuous
 62
     7
100
AcDbMText
 10
6.654453
 20
0.542396
 30
0.0
 40
0.07
 41
0.0
 71
     7
 72
     5
  1
\W01.000;\Fsimplex.shx;10-3-06
  7
blockfont
210
0.0
220
0.0
230
1.0
 73
     2
 44
0.903614
  0
MTEXT
  5
46B
100
AcDbEntity
 67
     1
  8
1
390
0
  6
Continuous
 62
     7
100
AcDbMText
 10
9.715625
 20
0.802135
 30
0.0
 40
0.125
 41
0.0
 71
     7
 72
     5
  1
\W01.000;\Fsimplex.shx;FULL
  7
blockfont
210
0.0
220
0.0
230
1.0
 73
     2
 44
0.903614
  0
MTEXT
  5
46C
100
AcDbEntity
 67
     1
  8
1
390
0
  6
Continuous
 62
     7
100
AcDbMText
 10
9.243164
 20
0.367135
 30
0.0
 40
0.125
 41
0.0
 71
     7
 72
     5
  1
\W01.000;\Fsimplex.shx;36401-09
  7
blockfont
210
0.0
220
0.0
230
1.0
 73
     2
 44
0.903614
  0
MTEXT
  5
46D
100
AcDbEntity
 67
     1
  8
1
390
0
  6
Continuous
 62
     7
100
AcDbMText
 10
8.227476
 20
0.712969
 30
0.0
 40
0.093
 41
0.0
 71
     7
 72
     5
  1
\W01.000;\Fsimplex.shx; 
  7
blockfont
210
0.0
220
0.0
230
1.0
 73
     2
 44
0.903614
  0
MTEXT
  5
46E
100
AcDbEntity
 67
     1
  8
1
390
0
  6
Continuous
 62
     7
100
AcDbMText
 10
7.822055
 20
0.573469
 30
0.0
 40
0.093
 41
0.0
 71
     7
 72
     5
  1
\W01.000;\Fsimplex.shx;NYLON 6/6
  7
blockfont
210
0.0
220
0.0
230
1.0
 73
     2
 44
0.903614
  0
MTEXT
  5
46F
100
AcDbEntity
 67
     1
  8
1
390
0
  6
Continuous
 62
     7
100
AcDbMText
 10
7.923774
 20
0.433969
 30
0.0
 40
0.093
 41
0.0
 71
     7
 72
     5
  1
\W01.000;\Fsimplex.shx;NATURAL
  7
blockfont
210
0.0
220
0.0
230
1.0
 73
     2
 44
0.903614
  0
MTEXT
  5
470
100
AcDbEntity
 67
     1
  8
1
390
0
  6
Continuous
 62
     7
100
AcDbMText
 10
6.814375
 20
0.256149
 30
0.0
 40
0.072
 41
0.0
 71
     7
 72
     5
  1
\W01.000;\Fsimplex.shx;JKG
  7
blockfont
210
0.0
220
0.0
230
1.0
 73
     2
 44
0.903614
  0
MTEXT
  5
471
100
AcDbEntity
 67
     1
  8
1
390
0
  6
Continuous
 62
     7
100
AcDbMText
 10
5.516874
 20
0.57575
 30
0.0
 40
0.072
 41
0.0
 71
     7
 72
     5
  1
\W01.000;\Fsimplex.shx;JKG
  7
blockfont
210
0.0
220
0.0
230
1.0
 73
     2
 44
0.903614
  0
MTEXT
  5
472
100
AcDbEntity
 67
     1
  8
1
390
0
  6
Continuous
 62
     7
100
AcDbMText
 10
1.486398
 20
0.57575
 30
0.0
 40
0.072
 41
0.0
 71
     7
 72
     5
  1
\W01.000;\Fsimplex.shx;JKG
  7
blockfont
210
0.0
220
0.0
230
1.0
 73
     2
 44
0.903614
  0
MTEXT
  5
473
100
AcDbEntity
 67
     1
  8
1
390
0
  6
Continuous
 62
     7
100
AcDbMText
 10
6.733066
 20
7.271605
 30
0.0
 40
0.09
 41
0.0
 71
     7
 72
     5
  1
\W01.000;\Fsimplex.shx;PANDUIT P/N
  7
blockfont
210
0.0
220
0.0
230
1.0
 73
     2
 44
0.903614
  0
MTEXT
  5
474
100
AcDbEntity
 67
     1
  8
1
390
0
  6
Continuous
 62
     7
100
AcDbMText
 10
8.332597
 20
7.271605
 30
0.0
 40
0.09
 41
0.0
 71
     7
 72
     5
  1
\W01.000;\Fsimplex.shx;WEIGHT
  7
blockfont
210
0.0
220
0.0
230
1.0
 73
     2
 44
0.903614
  0
MTEXT
  5
475
100
AcDbEntity
 67
     1
  8
1
390
0
  6
Continuous
 62
     7
100
AcDbMText
 10
7.132972
 20
6.955105
 30
0.0
 40
0.09
 41
0.0
 71
     7
 72
     5
  1
\W01.000;\Fsimplex.shx;NR1-
  7
blockfont
210
0.0
220
0.0
230
1.0
 73
     2
 44
0.903614
  0
MTEXT
  5
476
100
AcDbEntity
 67
     1
  8
1
390
0
  6
Continuous
 62
     7
100
AcDbMText
 10
7.943206
 20
7.030604
 30
0.0
 40
0.09
 41
0.0
 71
     7
 72
     5
  1
\W01.000;\Fsimplex.shx;.11LB/ 100PCS.
  7
blockfont
210
0.0
220
0.0
230
1.0
 73
     2
 44
0.903614
  0
MTEXT
  5
477
100
AcDbEntity
 67
     1
  8
1
390
0
  6
Continuous
 62
     7
100
AcDbMText
 10
7.943206
 20
6.895605
 30
0.0
 40
0.09
 41
0.0
 71
     7
 72
     5
  1
\W01.000;\Fsimplex.shx;(50g/ 100PCS.)
  7
blockfont
210
0.0
220
0.0
230
1.0
 73
     2
 44
0.903614
  0
MTEXT
  5
478
100
AcDbEntity
 67
     1
  8
1
390
0
  6
Continuous
 62
     7
100
AcDbMText
 10
6.189262
 20
6.429979
 30
0.0
 40
0.09
 41
0.0
 71
     7
 72
     5
  1
\W01.000;\Fsimplex.shx;NOTES:
  7
blockfont
210
0.0
220
0.0
230
1.0
 73
     2
 44
0.903614
  0
MTEXT
  5
479
100
AcDbEntity
 67
     1
  8
1
390
0
  6
Continuous
 62
     7
100
AcDbMText
 10
6.189262
 20
6.294979
 30
0.0
 40
0.09
 41
0.0
 71
     7
 72
     5
  1
\W01.000;\Fsimplex.shx;1. SEE CURRENT CATALOG FOR ADDITIONAL 
  7
blockfont
210
0.0
220
0.0
230
1.0
 73
     2
 44
0.903614
  0
MTEXT
  5
47A
100
AcDbEntity
 67
     1
  8
1
390
0
  6
Continuous
 62
     7
100
AcDbMText
 10
6.189262
 20
6.159979
 30
0.0
 40
0.09
 41
0.0
 71
     7
 72
     5
  1
\W01.000;\Fsimplex.shx;   PART SUFFIXES TO INDICATE COLOR AND
  7
blockfont
210
0.0
220
0.0
230
1.0
 73
     2
 44
0.903614
  0
MTEXT
  5
47B
100
AcDbEntity
 67
     1
  8
1
390
0
  6
Continuous
 62
     7
100
AcDbMText
 10
6.189262
 20
6.024979
 30
0.0
 40
0.09
 41
0.0
 71
     7
 72
     5
  1
\W01.000;\Fsimplex.shx;   OR PACKAGE QUANTITY.
  7
blockfont
210
0.0
220
0.0
230
1.0
 73
     2
 44
0.903614
  0
MTEXT
  5
47C
100
AcDbEntity
 67
     1
  8
1
390
0
  6
Continuous
 62
     7
100
AcDbMText
 10
6.189262
 20
5.889979
 30
0.0
 40
0.09
 41
0.0
 71
     7
 72
     5
  1
\W01.000;\Fsimplex.shx;2. DIMENSIONS IN PARENTHESES ARE METRIC.
  7
blockfont
210
0.0
220
0.0
230
1.0
 73
     2
 44
0.903614
  0
MTEXT
  5
47D
100
AcDbEntity
 67
     1
  8
1
390
0
  6
Continuous
 62
     7
100
AcDbMText
 10
0.468265
 20
6.319899
 30
0.0
 40
0.09
 41
0.0
 71
     7
 72
     5
  1
\W01.000;\Fsimplex.shx;.435
  7
blockfont
210
0.0
220
0.0
230
1.0
 73
     2
 44
0.903614
  0
MTEXT
  5
47E
100
AcDbEntity
 67
     1
  8
1
390
0
  6
Continuous
 62
     7
100
AcDbMText
 10
0.468265
 20
6.100523
 30
0.0
 40
0.09
 41
0.0
 71
     7
 72
     5
  1
\W01.000;\Fsimplex.shx;11.0
  7
blockfont
210
0.0
220
0.0
230
1.0
 73
     2
 44
0.903614
  0
MTEXT
  5
47F
100
AcDbEntity
 67
     1
  8
1
390
0
  6
Continuous
 62
     7
100
AcDbMText
 10
3.263274
 20
6.131327
 30
0.0
 40
0.09
 41
0.0
 71
     7
 72
     5
  1
\W01.000;\Fsimplex.shx;.070
  7
blockfont
210
0.0
220
0.0
230
1.0
 73
     2
 44
0.903614
  0
MTEXT
  5
480
100
AcDbEntity
 67
     1
  8
1
390
0
  6
Continuous
 62
     7
100
AcDbMText
 10
3.312493
 20
5.911952
 30
0.0
 40
0.09
 41
0.0
 71
     7
 72
     5
  1
\W01.000;\Fsimplex.shx;1.8
  7
blockfont
210
0.0
220
0.0
230
1.0
 73
     2
 44
0.903614
  0
MTEXT
  5
481
100
AcDbEntity
 67
     1
  8
1
390
0
  6
Continuous
 62
     7
100
AcDbMText
 10
4.893514
 20
6.132728
 30
0.0
 40
0.09
 41
0.0
 71
     7
 72
     5
  1
\W01.000;\Fsimplex.shx;.370
  7
blockfont
210
0.0
220
0.0
230
1.0
 73
     2
 44
0.903614
  0
MTEXT
  5
482
100
AcDbEntity
 67
     1
  8
1
390
0
  6
Continuous
 62
     7
100
AcDbMText
 10
4.942733
 20
5.913352
 30
0.0
 40
0.09
 41
0.0
 71
     7
 72
     5
  1
\W01.000;\Fsimplex.shx;9.4
  7
blockfont
210
0.0
220
0.0
230
1.0
 73
     2
 44
0.903614
  0
MTEXT
  5
483
100
AcDbEntity
 67
     1
  8
1
390
0
  6
Continuous
 62
     7
100
AcDbMText
 10
4.498193
 20
7.421424
 30
0.0
 40
0.09
 41
0.0
 71
     7
 72
     5
  1
\W01.000;\Fsimplex.shx;.186
  7
blockfont
210
0.0
220
0.0
230
1.0
 73
     2
 44
0.903614
  0
MTEXT
  5
484
100
AcDbEntity
 67
     1
  8
1
390
0
  6
Continuous
 62
     7
100
AcDbMText
 10
5.069318
 20
7.421424
 30
0.0
 40
0.09
 41
0.0
 71
     7
 72
     5
  1
\W01.000;\Fsimplex.shx;.005
  7
blockfont
210
0.0
220
0.0
230
1.0
 73
     2
 44
0.903614
  0
MTEXT
  5
485
100
AcDbEntity
 67
     1
  8
1
390
0
  6
Continuous
 62
     7
100
AcDbMText
 10
4.547411
 20
7.202049
 30
0.0
 40
0.09
 41
0.0
 71
     7
 72
     5
  1
\W01.000;\Fsimplex.shx;4.7
  7
blockfont
210
0.0
220
0.0
230
1.0
 73
     2
 44
0.903614
  0
MTEXT
  5
486
100
AcDbEntity
 67
     1
  8
1
390
0
  6
Continuous
 62
     7
100
AcDbMText
 10
5.020287
 20
7.202049
 30
0.0
 40
0.09
 41
0.0
 71
     7
 72
     5
  1
\W01.000;\Fsimplex.shx;0.10
  7
blockfont
210
0.0
220
0.0
230
1.0
 73
     2
 44
0.903614
  0
MTEXT
  5
487
100
AcDbEntity
 67
     1
  8
1
390
0
  6
Continuous
 62
     7
100
AcDbMText
 10
0.796704
 20
7.580592
 30
0.0
 40
0.09
 41
0.0
 71
     7
 72
     5
  1
\W01.000;\Fsimplex.shx;NOTE:  PIN DRIVEN IN FLUSH
  7
blockfont
210
0.0
220
0.0
230
1.0
 73
     2
 44
0.903614
  0
MTEXT
  5
488
100
AcDbEntity
 67
     1
  8
1
390
0
  6
Continuous
 62
     7
100
AcDbMText
 10
0.943657
 20
7.445592
 30
0.0
 40
0.09
 41
0.0
 71
     7
 72
     5
  1
\W01.000;\Fsimplex.shx;       HERE AT ASSEMBLY
  7
blockfont
210
0.0
220
0.0
230
1.0
 73
     2
 44
0.903614
  0
MTEXT
  5
489
100
AcDbEntity
 67
     1
  8
1
390
0
  6
Continuous
 62
     7
100
AcDbMText
 10
3.129431
 20
5.112997
 30
0.0
 40
0.09
 41
0.0
 71
     7
 72
     5
  1
\W01.000;\Fsimplex.shx;HOLE SIZE
  7
blockfont
210
0.0
220
0.0
230
1.0
 73
     2
 44
0.903614
  0
MTEXT
  5
48A
100
AcDbEntity
 67
     1
  8
1
390
0
  6
Continuous
 62
     7
100
AcDbMText
 10
3.031697
 20
4.977997
 30
0.0
 40
0.09
 41
0.0
 71
     7
 72
     5
  1
\W01.000;\Fsimplex.shx;+ .005[.10]
  7
blockfont
210
0.0
220
0.0
230
1.0
 73
     2
 44
0.903614
  0
MTEXT
  5
48B
100
AcDbEntity
 67
     1
  8
1
390
0
  6
Continuous
 62
     7
100
AcDbMText
 10
3.031697
 20
4.842997
 30
0.0
 40
0.09
 41
0.0
 71
     7
 72
     5
  1
\W01.000;\Fsimplex.shx;- .000[.00]
  7
blockfont
210
0.0
220
0.0
230
1.0
 73
     2
 44
0.903614
  0
MTEXT
  5
48C
100
AcDbEntity
 67
     1
  8
1
390
0
  6
Continuous
 62
     7
100
AcDbMText
 10
1.335525
 20
5.045496
 30
0.0
 40
0.09
 41
0.0
 71
     7
 72
     5
  1
\W01.000;\Fsimplex.shx;TOTAL THICKNESS
  7
blockfont
210
0.0
220
0.0
230
1.0
 73
     2
 44
0.903614
  0
MTEXT
  5
48D
100
AcDbEntity
 67
     1
  8
1
390
0
  6
Continuous
 62
     7
100
AcDbMText
 10
1.482478
 20
4.910497
 30
0.0
 40
0.09
 41
0.0
 71
     7
 72
     5
  1
\W01.000;\Fsimplex.shx;PANEL & DUCT
  7
blockfont
210
0.0
220
0.0
230
1.0
 73
     2
 44
0.903614
  0
MTEXT
  5
48E
100
AcDbEntity
 67
     1
  8
1
390
0
  6
Continuous
 62
     7
100
AcDbMText
 10
1.531696
 20
4.465247
 30
0.0
 40
0.09
 41
0.0
 71
     7
 72
     5
  1
\W01.000;\Fsimplex.shx;.156 - .187
  7
blockfont
210
0.0
220
0.0
230
1.0
 73
     2
 44
0.903614
  0
MTEXT
  5
48F
100
AcDbEntity
 67
     1
  8
1
390
0
  6
Continuous
 62
     7
100
AcDbMText
 10
1.531696
 20
4.330247
 30
0.0
 40
0.09
 41
0.0
 71
     7
 72
     5
  1
\W01.000;\Fsimplex.shx;[4.0 - 4.7]
  7
blockfont
210
0.0
220
0.0
230
1.0
 73
     2
 44
0.903614
  0
MTEXT
  5
490
100
AcDbEntity
 67
     1
  8
1
390
0
  6
Continuous
 62
     7
100
AcDbMText
 10
3.374821
 20
4.465247
 30
0.0
 40
0.09
 41
0.0
 71
     7
 72
     5
  1
\W01.000;\Fsimplex.shx;.187
  7
blockfont
210
0.0
220
0.0
230
1.0
 73
     2
 44
0.903614
  0
MTEXT
  5
491
100
AcDbEntity
 67
     1
  8
1
390
0
  6
Continuous
 62
     7
100
AcDbMText
 10
3.325603
 20
4.330247
 30
0.0
 40
0.09
 41
0.0
 71
     7
 72
     5
  1
\W01.000;\Fsimplex.shx;[4.7]
  7
blockfont
210
0.0
220
0.0
230
1.0
 73
     2
 44
0.903614
  0
MTEXT
  5
492
100
AcDbEntity
 67
     1
  8
1
390
0
  6
Continuous
 62
     7
100
AcDbMText
 10
1.531696
 20
4.043247
 30
0.0
 40
0.09
 41
0.0
 71
     7
 72
     5
  1
\W01.000;\Fsimplex.shx;.188 - .218
  7
blockfont
210
0.0
220
0.0
230
1.0
 73
     2
 44
0.903614
  0
MTEXT
  5
493
100
AcDbEntity
 67
     1
  8
1
390
0
  6
Continuous
 62
     7
100
AcDbMText
 10
1.531696
 20
3.908247
 30
0.0
 40
0.09
 41
0.0
 71
     7
 72
     5
  1
\W01.000;\Fsimplex.shx;[4.8 - 5.5]
  7
blockfont
210
0.0
220
0.0
230
1.0
 73
     2
 44
0.903614
  0
MTEXT
  5
494
100
AcDbEntity
 67
     1
  8
1
390
0
  6
Continuous
 62
     7
100
AcDbMText
 10
3.374821
 20
4.043247
 30
0.0
 40
0.09
 41
0.0
 71
     7
 72
     5
  1
\W01.000;\Fsimplex.shx;.193
  7
blockfont
210
0.0
220
0.0
230
1.0
 73
     2
 44
0.903614
  0
MTEXT
  5
495
100
AcDbEntity
 67
     1
  8
1
390
0
  6
Continuous
 62
     7
100
AcDbMText
 10
3.325603
 20
3.908247
 30
0.0
 40
0.09
 41
0.0
 71
     7
 72
     5
  1
\W01.000;\Fsimplex.shx;[4.9]
  7
blockfont
210
0.0
220
0.0
230
1.0
 73
     2
 44
0.903614
  0
MTEXT
  5
496
100
AcDbEntity
 67
     1
  8
1
390
0
  6
Continuous
 62
     7
100
AcDbMText
 10
1.531696
 20
3.621247
 30
0.0
 40
0.09
 41
0.0
 71
     7
 72
     5
  1
\W01.000;\Fsimplex.shx;.219 - .250
  7
blockfont
210
0.0
220
0.0
230
1.0
 73
     2
 44
0.903614
  0
MTEXT
  5
497
100
AcDbEntity
 67
     1
  8
1
390
0
  6
Continuous
 62
     7
100
AcDbMText
 10
1.482478
 20
3.486247
 30
0.0
 40
0.09
 41
0.0
 71
     7
 72
     5
  1
\W01.000;\Fsimplex.shx;[5.6 - 6.35]
  7
blockfont
210
0.0
220
0.0
230
1.0
 73
     2
 44
0.903614
  0
MTEXT
  5
498
100
AcDbEntity
 67
     1
  8
1
390
0
  6
Continuous
 62
     7
100
AcDbMText
 10
3.374821
 20
3.621247
 30
0.0
 40
0.09
 41
0.0
 71
     7
 72
     5
  1
\W01.000;\Fsimplex.shx;.203
  7
blockfont
210
0.0
220
0.0
230
1.0
 73
     2
 44
0.903614
  0
MTEXT
  5
499
100
AcDbEntity
 67
     1
  8
1
390
0
  6
Continuous
 62
     7
100
AcDbMText
 10
3.325603
 20
3.486247
 30
0.0
 40
0.09
 41
0.0
 71
     7
 72
     5
  1
\W01.000;\Fsimplex.shx;[5.2]
  7
blockfont
210
0.0
220
0.0
230
1.0
 73
     2
 44
0.903614
  0
MTEXT
  5
49A
100
AcDbEntity
 67
     1
  8
1
390
0
  6
Continuous
 62
     7
100
AcDbMText
 10
1.531696
 20
3.199247
 30
0.0
 40
0.09
 41
0.0
 71
     7
 72
     5
  1
\W01.000;\Fsimplex.shx;.251 - .281
  7
blockfont
210
0.0
220
0.0
230
1.0
 73
     2
 44
0.903614
  0
MTEXT
  5
49B
100
AcDbEntity
 67
     1
  8
1
390
0
  6
Continuous
 62
     7
100
AcDbMText
 10
1.482478
 20
3.064247
 30
0.0
 40
0.09
 41
0.0
 71
     7
 72
     5
  1
\W01.000;\Fsimplex.shx;[6.38 - 7.1]
  7
blockfont
210
0.0
220
0.0
230
1.0
 73
     2
 44
0.903614
  0
MTEXT
  5
49C
100
AcDbEntity
 67
     1
  8
1
390
0
  6
Continuous
 62
     7
100
AcDbMText
 10
3.374821
 20
3.199247
 30
0.0
 40
0.09
 41
0.0
 71
     7
 72
     5
  1
\W01.000;\Fsimplex.shx;.213
  7
blockfont
210
0.0
220
0.0
230
1.0
 73
     2
 44
0.903614
  0
MTEXT
  5
49D
100
AcDbEntity
 67
     1
  8
1
390
0
  6
Continuous
 62
     7
100
AcDbMText
 10
3.325603
 20
3.064247
 30
0.0
 40
0.09
 41
0.0
 71
     7
 72
     5
  1
\W01.000;\Fsimplex.shx;[5.4]
  7
blockfont
210
0.0
220
0.0
230
1.0
 73
     2
 44
0.903614
  0
MTEXT
  5
49E
100
AcDbEntity
 67
     1
  8
1
390
0
  6
Continuous
 62
     7
100
AcDbMText
 10
2.971298
 20
6.343737
 30
0.0
 40
0.09
 41
0.0
 71
     7
 72
     5
  1
\W01.000;\Fsimplex.shx; REF
  7
blockfont
210
0.0
220
0.0
230
1.0
 73
     2
 44
0.903614
  0
MTEXT
  5
49F
100
AcDbEntity
 67
     1
  8
1
390
0
  6
Continuous
 62
     7
100
AcDbMText
 10
2.367736
 20
6.343737
 30
0.0
 40
0.09
 41
0.0
 71
     7
 72
     5
  1
\W01.000;\Fsimplex.shx;.12
  7
blockfont
210
0.0
220
0.0
230
1.0
 73
     2
 44
0.903614
  0
MTEXT
  5
4A0
100
AcDbEntity
 67
     1
  8
1
390
0
  6
Continuous
 62
     7
100
AcDbMText
 10
2.407111
 20
6.124362
 30
0.0
 40
0.09
 41
0.0
 71
     7
 72
     5
  1
\W01.000;\Fsimplex.shx;3.1
  7
blockfont
210
0.0
220
0.0
230
1.0
 73
     2
 44
0.903614
  0
MTEXT
  5
4A1
100
AcDbEntity
 67
     1
  8
1
390
0
  6
Continuous
 62
     7
100
AcDbMText
 10
10.496198
 20
2.874976
 30
0.0
 40
0.09
 41
0.0
 71
     7
 72
     5
  1
\W01.000;\Fsimplex.shx;A
  7
blockfont
210
0.0
220
0.0
230
1.0
 73
     2
 44
0.903614
  0
MTEXT
  5
4A2
100
AcDbEntity
 67
     1
  8
1
390
0
  6
Continuous
 62
     7
100
AcDbMText
 10
4.333259
 20
5.045496
 30
0.0
 40
0.09
 41
0.0
 71
     7
 72
     5
  1
\W01.000;\Fsimplex.shx;ANSI STANDARD
  7
blockfont
210
0.0
220
0.0
230
1.0
 73
     2
 44
0.903614
  0
MTEXT
  5
4A3
100
AcDbEntity
 67
     1
  8
1
390
0
  6
Continuous
 62
     7
100
AcDbMText
 10
4.480915
 20
4.910497
 30
0.0
 40
0.09
 41
0.0
 71
     7
 72
     5
  1
\W01.000;\Fsimplex.shx;DRILL SIZE
  7
blockfont
210
0.0
220
0.0
230
1.0
 73
     2
 44
0.903614
  0
MTEXT
  5
4A4
100
AcDbEntity
 67
     1
  8
1
390
0
  6
Continuous
 62
     7
100
AcDbMText
 10
4.756071
 20
4.389517
 30
0.0
 40
0.1
 41
0.0
 71
     7
 72
     5
  1
\W01.000;\Fsimplex.shx;3/16
  7
blockfont
210
0.0
220
0.0
230
1.0
 73
     2
 44
0.903614
  0
MTEXT
  5
4A5
100
AcDbEntity
 67
     1
  8
1
390
0
  6
Continuous
 62
     7
100
AcDbMText
 10
4.864665
 20
3.967518
 30
0.0
 40
0.1
 41
0.0
 71
     7
 72
     5
  1
\W01.000;\Fsimplex.shx;10
  7
blockfont
210
0.0
220
0.0
230
1.0
 73
     2
 44
0.903614
  0
MTEXT
  5
4A6
100
AcDbEntity
 67
     1
  8
1
390
0
  6
Continuous
 62
     7
100
AcDbMText
 10
4.701384
 20
3.545517
 30
0.0
 40
0.1
 41
0.0
 71
     7
 72
     5
  1
\W01.000;\Fsimplex.shx;13/64
  7
blockfont
210
0.0
220
0.0
230
1.0
 73
     2
 44
0.903614
  0
MTEXT
  5
4A7
100
AcDbEntity
 67
     1
  8
1
390
0
  6
Continuous
 62
     7
100
AcDbMText
 10
4.919353
 20
3.123518
 30
0.0
 40
0.1
 41
0.0
 71
     7
 72
     5
  1
\W01.000;\Fsimplex.shx;3
  7
blockfont
210
0.0
220
0.0
230
1.0
 73
     2
 44
0.903614
  0
MTEXT
  5
4A8
100
AcDbEntity
 67
     1
  8
1
390
0
  6
Continuous
 62
     7
100
AcDbMText
 10
10.496198
 20
3.114976
 30
0.0
 40
0.09
 41
0.0
 71
     7
 72
     5
  1
\W01.000;\Fsimplex.shx;B
  7
blockfont
210
0.0
220
0.0
230
1.0
 73
     2
 44
0.903614
  0
MTEXT
  5
4A9
100
AcDbEntity
 67
     1
  8
1
390
0
  6
Continuous
 62
     7
100
AcDbMText
 10
6.590261
 20
2.860892
 30
0.0
 40
0.093
 41
0.0
 71
     7
 72
     5
  1
\W01.000;\Fsimplex.shx;THIS DRAWING SUPERCEDES DRAWING D-191
  7
blockfont
210
0.0
220
0.0
230
1.0
 73
     2
 44
0.903614
  0
MTEXT
  5
4AA
100
AcDbEntity
 67
     1
  8
1
390
0
  6
Continuous
 62
     7
100
AcDbMText
 10
0.457562
 20
0.828706
 30
0.0
 40
0.072
 41
0.0
 71
     7
 72
     5
  1
\W01.000;\Fsimplex.shx;1
  7
blockfont
210
0.0
220
0.0
230
1.0
 73
     2
 44
0.903614
  0
MTEXT
  5
4AB
100
AcDbEntity
 67
     1
  8
1
390
0
  6
Continuous
 62
     7
100
AcDbMText
 10
0.683766
 20
0.84681
 30
0.0
 40
0.05
 41
0.0
 71
     7
 72
     5
  1
\W01.000;\Fsimplex.shx;11-11-09
  7
blockfont
210
0.0
220
0.0
230
1.0
 73
     2
 44
0.903614
  0
MTEXT
  5
4AC
100
AcDbEntity
 67
     1
  8
1
390
0
  6
Continuous
 62
     7
100
AcDbMText
 10
1.1655
 20
0.838581
 30
0.0
 40
0.06
 41
0.0
 71
     7
 72
     5
  1
\W01.000;\Fsimplex.shx;JCST
  7
blockfont
210
0.0
220
0.0
230
1.0
 73
     2
 44
0.903614
  0
MTEXT
  5
4AD
100
AcDbEntity
 67
     1
  8
1
390
0
  6
Continuous
 62
     7
100
AcDbMText
 10
1.778
 20
0.828706
 30
0.0
 40
0.072
 41
0.0
 71
     7
 72
     5
  1
\W01.000;\Fsimplex.shx;C. CHANGED CHART-WAS ".187 - .218"
  7
blockfont
210
0.0
220
0.0
230
1.0
 73
     2
 44
0.903614
  0
MTEXT
  5
4AE
100
AcDbEntity
 67
     1
  8
1
390
0
  6
Continuous
 62
     7
100
AcDbMText
 10
4.555446
 20
0.834467
 30
0.0
 40
0.065
 41
0.0
 71
     7
 72
     5
  1
\W01.000;\Fsimplex.shx;36401-09
  7
blockfont
210
0.0
220
0.0
230
1.0
 73
     2
 44
0.903614
  0
MTEXT
  5
4AF
100
AcDbEntity
 67
     1
  8
1
390
0
  6
Continuous
 62
     7
100
AcDbMText
 10
5.192375
 20
0.828706
 30
0.0
 40
0.072
 41
0.0
 71
     7
 72
     5
  1
\W01.000;\Fsimplex.shx;HIW
  7
blockfont
210
0.0
220
0.0
230
1.0
 73
     2
 44
0.903614
  0
MTEXT
  5
4B0
100
AcDbEntity
 67
     1
  8
1
390
0
  6
Continuous
 62
     7
100
AcDbMText
 10
5.516874
 20
0.828706
 30
0.0
 40
0.072
 41
0.0
 71
     7
 72
     5
  1
\W01.000;\Fsimplex.shx;HIW
  7
blockfont
210
0.0
220
0.0
230
1.0
 73
     2
 44
0.903614
  0
MTEXT
  5
4B1
100
AcDbEntity
 67
     1
  8
1
390
0
  6
Continuous
 62
     7
100
AcDbMText
 10
1.469523
 20
0.838581
 30
0.0
 40
0.06
 41
0.0
 71
     7
 72
     5
  1
\W01.000;\Fsimplex.shx;MRJS
  7
blockfont
210
0.0
220
0.0
230
1.0
 73
     2
 44
0.903614
  0
MTEXT
  5
4B2
100
AcDbEntity
 67
     1
  8
1
390
0
  6
Continuous
 62
     7
100
AcDbMText
 10
0.959302
 20
3.863288
 30
0.0
 40
0.09
 41
0.0
 71
     7
 72
     5
  1
\W01.000;\Fsimplex.shx;C
  7
blockfont
210
0.0
220
0.0
230
1.0
 73
     2
 44
0.903614
  0
ENDSEC
  0
SECTION
  2
OBJECTS
  0
DICTIONARY
  5
19
100
AcDbDictionary
280
     0
281
     1
  3
ACAD_GROUP
350
1A
  3
ACAD_MLINESTYLE
350
1B
  3
ACAD_LAYOUT
350
1E
  3
ACAD_PLOTSETTINGS
350
22
  3
ACAD_PLOTSTYLENAME
350
1F
  3
ACAD_WIPEOUT_VARS
350
23
  0
DICTIONARY
  5
1A
102
{ACAD_REACTORS
330
19
102
}
100
AcDbDictionary
280
     0
281
     1
  0
DICTIONARY
  5
1B
102
{ACAD_REACTORS
330
19
102
}
100
AcDbDictionary
280
     0
281
     1
  3
Standard
350
1C
  0
MLINESTYLE
  5
1C
102
{ACAD_REACTORS
330
1B
102
}
100
AcDbMlineStyle
  2
Standard
 70
     0
  3

 62
     0
 51
90.0
 52
90.0
 71
     2
 49
0.5
 62
   256
  6
ByLayer
 49
-0.5
 62
   256
  6
ByLayer
  0
ACDBDICTIONARYWDFLT
  5
1F
102
{ACAD_REACTORS
330
19
102
}
100
AcDbDictionary
281
     1
  3
Normal
350
1D
100
AcDbDictionaryWithDefault
340
1D
  0
ACDBPLACEHOLDER
  5
1D
102
{ACAD_REACTORS
330
1F
102
}
  0
LAYOUT
  5
20
102
{ACAD_REACTORS
330
1E
102
}
100
AcDbPlotSettings
  1

  2

  4

  6

 40
0.0
 41
0.0
 42
0.0
 43
0.0
 44
0.0
 45
0.0
 46
0.0
 47
0.0
 48
0.0
 49
0.0
140
0.0
141
0.0
142
1.0
143
1.0
 70
  1024
 72
     0
 73
     0
 74
     0
  7

 75
     0
147
1.0
148
0.0
149
0.0
100
AcDbLayout
  1
Model
 70
     0
 71
     0
 10
0.0
 20
0.0
 11
0.0
 21
0.0
 12
0.0
 22
0.0
 32
0.0
 14
0.0
 24
0.0
 34
0.0
 15
0.0
 25
0.0
 35
0.0
146
0.0
 13
0.0
 23
0.0
 33
0.0
 16
0.0
 26
0.0
 36
0.0
 17
0.0
 27
0.0
 37
0.0
 76
     0
330
A
331
0
345
0
346
0
  0
LAYOUT
  5
21
102
{ACAD_REACTORS
330
1E
102
}
100
AcDbPlotSettings
  1

  2

  4

  6

 40
0.0
 41
0.0
 42
0.0
 43
0.0
 44
0.0
 45
0.0
 46
0.0
 47
0.0
 48
0.0
 49
0.0
140
0.0
141
0.0
142
1.0
143
1.0
 70
     0
 72
     0
 73
     0
 74
     0
  7

 75
     0
147
1.0
148
0.0
149
0.0
100
AcDbLayout
  1
Layout1
 70
     0
 71
     0
 10
0.0
 20
0.0
 11
0.0
 21
0.0
 12
0.0
 22
0.0
 32
0.0
 14
0.0
 24
0.0
 34
0.0
 15
0.0
 25
0.0
 35
0.0
146
0.0
 13
0.0
 23
0.0
 33
0.0
 16
0.0
 26
0.0
 36
0.0
 17
0.0
 27
0.0
 37
0.0
 76
     0
330
B
331
0
345
0
346
0
  0
DICTIONARY
  5
1E
102
{ACAD_REACTORS
330
19
102
}
100
AcDbDictionary
280
     0
281
     1
  3
Layout1
350
21
  3
Model
350
20
  3
36401-09
350
4B3
  0
DICTIONARY
  5
22
102
{ACAD_REACTORS
330
19
102
}
100
AcDbDictionary
280
     0
281
     1
  0
WIPEOUTVARIABLES
  5
23
100
AcDbWipeoutVariables
 70
     1
  0
LAYOUT
  5
4B3
102
{ACAD_REACTORS
330
1E
102
}
100
AcDbPlotSettings
  1

  2

  4

  6

 40
20.0
 41
20.0
 42
20.0
 43
20.0
 44
319.4
 45
255.9
 46
0.0
 47
0.0
 48
0.0
 49
0.0
140
319.4
141
255.9
142
1.0
143
1.0
 70
     0
 72
     0
 73
     0
 74
     1
  7

 75
     0
147
1.0
148
0.0
149
0.0
100
AcDbLayout
  1
36401-09
 70
     0
 71
     1
 10
0.0
 20
0.0
 11
11.0
 21
8.5
 12
0.0
 22
0.0
 32
0.0
 14
0.0
 24
0.0
 34
0.0
 15
11.0
 25
8.5
 35
0.0
146
0.0
 13
0.0
 23
0.0
 33
0.0
 16
0.0
 26
0.0
 36
0.0
 17
0.0
 27
0.0
 37
0.0
 76
     0
330
B
331
32
345
0
346
0
  0
ENDSEC
  0
EOF
