  0
SECTION
  2
HEADER
  9
$ACADVER
  1
AC1012
  9
$DWGCODEPAGE
  3
ANSI_1252
  9
$INSBASE
 10
0.0
 20
0.0
 30
0.0
  9
$EXTMIN
 10
0.7244094488188976
 20
4.622047244094487
 30
0.0
  9
$EXTMAX
 10
4.123031496062991
 20
5.488188976377952
 30
0.0
  9
$LIMMIN
 10
0.0
 20
0.0
  9
$LIMMAX
 10
12.0
 20
9.0
  9
$ORTHOMODE
 70
     0
  9
$REGENMODE
 70
     1
  9
$FILLMODE
 70
     1
  9
$QTEXTMODE
 70
     0
  9
$MIRRTEXT
 70
     1
  9
$DRAGMODE
 70
     2
  9
$LTSCALE
 40
1.0
  9
$OSMODE
 70
   547
  9
$ATTMODE
 70
     1
  9
$TEXTSIZE
 40
0.2
  9
$TRACEWID
 40
0.05
  9
$TEXTSTYLE
  7
STANDARD
  9
$CLAYER
  8
0
  9
$CELTYPE
  6
BYLAYER
  9
$CECOLOR
 62
   256
  9
$CELTSCALE
 40
1.0
  9
$DELOBJ
 70
     1
  9
$DISPSILH
 70
     0
  9
$DIMSCALE
 40
1.0
  9
$DIMASZ
 40
0.18
  9
$DIMEXO
 40
0.0625
  9
$DIMDLI
 40
0.38
  9
$DIMRND
 40
0.0
  9
$DIMDLE
 40
0.0
  9
$DIMEXE
 40
0.18
  9
$DIMTP
 40
0.0
  9
$DIMTM
 40
0.0
  9
$DIMTXT
 40
0.18
  9
$DIMCEN
 40
0.09
  9
$DIMTSZ
 40
0.0
  9
$DIMTOL
 70
     0
  9
$DIMLIM
 70
     0
  9
$DIMTIH
 70
     1
  9
$DIMTOH
 70
     1
  9
$DIMSE1
 70
     0
  9
$DIMSE2
 70
     0
  9
$DIMTAD
 70
     0
  9
$DIMZIN
 70
     0
  9
$DIMBLK
  1

  9
$DIMASO
 70
     1
  9
$DIMSHO
 70
     1
  9
$DIMPOST
  1

  9
$DIMAPOST
  1

  9
$DIMALT
 70
     0
  9
$DIMALTD
 70
     2
  9
$DIMALTF
 40
25.4
  9
$DIMLFAC
 40
1.0
  9
$DIMTOFL
 70
     0
  9
$DIMTVP
 40
0.0
  9
$DIMTIX
 70
     0
  9
$DIMSOXD
 70
     0
  9
$DIMSAH
 70
     0
  9
$DIMBLK1
  1

  9
$DIMBLK2
  1

  9
$DIMSTYLE
  2
STANDARD
  9
$DIMCLRD
 70
     0
  9
$DIMCLRE
 70
     0
  9
$DIMCLRT
 70
     0
  9
$DIMTFAC
 40
1.0
  9
$DIMGAP
 40
0.09
  9
$DIMJUST
 70
     0
  9
$DIMSD1
 70
     0
  9
$DIMSD2
 70
     0
  9
$DIMTOLJ
 70
     1
  9
$DIMTZIN
 70
     0
  9
$DIMALTZ
 70
     0
  9
$DIMALTTZ
 70
     0
  9
$DIMFIT
 70
     5
  9
$DIMUPT
 70
     0
  9
$DIMUNIT
 70
     2
  9
$DIMDEC
 70
     4
  9
$DIMTDEC
 70
     4
  9
$DIMALTU
 70
     2
  9
$DIMALTTD
 70
     2
  9
$DIMTXSTY
  7
STANDARD
  9
$DIMAUNIT
 70
     0
  9
$LUNITS
 70
     2
  9
$LUPREC
 70
     4
  9
$SKETCHINC
 40
0.1
  9
$FILLETRAD
 40
0.0
  9
$AUNITS
 70
     0
  9
$AUPREC
 70
     0
  9
$MENU
  1
acad
  9
$ELEVATION
 40
0.0
  9
$PELEVATION
 40
0.0
  9
$THICKNESS
 40
0.0
  9
$LIMCHECK
 70
     0
  9
$BLIPMODE
 70
     0
  9
$CHAMFERA
 40
0.0
  9
$CHAMFERB
 40
0.0
  9
$CHAMFERC
 40
0.0
  9
$CHAMFERD
 40
0.0
  9
$SKPOLY
 70
     0
  9
$TDCREATE
 40
2452566.543518518
  9
$TDUPDATE
 40
2453776.650155648
  9
$TDINDWG
 40
0.0018849537
  9
$TDUSRTIMER
 40
0.0018849537
  9
$USRTIMER
 70
     1
  9
$ANGBASE
 50
0.0
  9
$ANGDIR
 70
     0
  9
$PDMODE
 70
     0
  9
$PDSIZE
 40
0.0
  9
$PLINEWID
 40
0.0
  9
$COORDS
 70
     1
  9
$SPLFRAME
 70
     0
  9
$SPLINETYPE
 70
     6
  9
$SPLINESEGS
 70
     8
  9
$ATTDIA
 70
     0
  9
$ATTREQ
 70
     1
  9
$HANDLING
 70
  4097
  9
$HANDSEED
  5
3B08
  9
$SURFTAB1
 70
     6
  9
$SURFTAB2
 70
     6
  9
$SURFTYPE
 70
     6
  9
$SURFU
 70
     6
  9
$SURFV
 70
     6
  9
$UCSNAME
  2

  9
$UCSORG
 10
0.0
 20
0.0
 30
0.0
  9
$UCSXDIR
 10
1.0
 20
0.0
 30
0.0
  9
$UCSYDIR
 10
0.0
 20
1.0
 30
0.0
  9
$PUCSNAME
  2

  9
$PUCSORG
 10
0.0
 20
0.0
 30
0.0
  9
$PUCSXDIR
 10
1.0
 20
0.0
 30
0.0
  9
$PUCSYDIR
 10
0.0
 20
1.0
 30
0.0
  9
$USERI1
 70
     0
  9
$USERI2
 70
     0
  9
$USERI3
 70
     0
  9
$USERI4
 70
     0
  9
$USERI5
 70
     0
  9
$USERR1
 40
0.0
  9
$USERR2
 40
0.0
  9
$USERR3
 40
0.0
  9
$USERR4
 40
0.0
  9
$USERR5
 40
0.0
  9
$WORLDVIEW
 70
     1
  9
$SHADEDGE
 70
     3
  9
$SHADEDIF
 70
    70
  9
$TILEMODE
 70
     1
  9
$MAXACTVP
 70
    16
  9
$PINSBASE
 10
0.0
 20
0.0
 30
0.0
  9
$PLIMCHECK
 70
     0
  9
$PEXTMIN
 10
1.000000000000000E+20
 20
1.000000000000000E+20
 30
1.000000000000000E+20
  9
$PEXTMAX
 10
-1.000000000000000E+20
 20
-1.000000000000000E+20
 30
-1.000000000000000E+20
  9
$PLIMMIN
 10
0.0
 20
0.0
  9
$PLIMMAX
 10
12.0
 20
9.0
  9
$UNITMODE
 70
     0
  9
$VISRETAIN
 70
     0
  9
$PLINEGEN
 70
     0
  9
$PSLTSCALE
 70
     1
  9
$TREEDEPTH
 70
  3020
  9
$PICKSTYLE
 70
     1
  9
$CMLSTYLE
  2
STANDARD
  9
$CMLJUST
 70
     0
  9
$CMLSCALE
 40
1.0
  9
$SAVEIMAGES
 70
     1
  0
ENDSEC
  0
SECTION
  2
CLASSES
  0
CLASS
  1
ACDBDICTIONARYWDFLT
  2
AcDbDictionaryWithDefault
  3
AutoCAD 2000
 90
    32768
280
     0
281
     0
  0
CLASS
  1
ACDBPLACEHOLDER
  2
AcDbPlaceHolder
  3
AutoCAD 2000
 90
    32768
280
     0
281
     0
  0
CLASS
  1
LAYOUT
  2
AcDbLayout
  3
AutoCAD 2000
 90
    32768
280
     0
281
     0
  0
CLASS
  1
LONG_TRANSACTION
  2
AcDbLongTransaction
  3
AutoCAD 2000
 90
    32768
280
     0
281
     0
  0
CLASS
  1
LWPOLYLINE
  2
AcDbPolyline
  3
AutoCAD 2000
 90
    32768
280
     0
281
     1
  0
CLASS
  1
HATCH
  2
AcDbHatch
  3
AutoCAD 2000
 90
    32768
280
     0
281
     1
  0
CLASS
  1
XRECORD
  2
AcDbXrecord
  3
AutoCAD 2000
 90
    32768
280
     0
281
     0
  0
CLASS
  1
LONG_TRANSACTION
  2
AcDbLongTransaction
  3
AutoCAD 2000
 90
    32768
280
     0
281
     0
  0
CLASS
  1
LWPOLYLINE
  2
AcDbPolyline
  3
AutoCAD 2000
 90
    32768
280
     0
281
     1
  0
CLASS
  1
HATCH
  2
AcDbHatch
  3
AutoCAD 2000
 90
    32768
280
     0
281
     1
  0
CLASS
  1
XRECORD
  2
AcDbXrecord
  3
AutoCAD 2000
 90
    32768
280
     0
281
     0
  0
ENDSEC
  0
SECTION
  2
TABLES
  0
TABLE
  2
VPORT
  5
8
330
0
100
AcDbSymbolTable
 70
     2
  0
VPORT
  5
3B05
330
8
100
AcDbSymbolTableRecord
100
AcDbViewportTableRecord
  2
*ACTIVE
 70
     0
 10
0.0
 20
0.0
 11
1.0
 21
1.0
 12
2.548075176480146
 22
5.055152914667447
 13
0.0
 23
0.0
 14
1.0
 24
1.0
 15
0.0
 25
0.0
 16
0.0
 26
0.0
 36
1.0
 17
0.0
 27
0.0
 37
0.0
 40
2.097392721889883
 41
1.748134328358208
 42
50.0
 43
0.0
 44
0.0
 50
0.0
 51
0.0
 71
     0
 72
   100
 73
     1
 74
     1
 75
     0
 76
     0
 77
     0
 78
     0
  0
ENDTAB
  0
TABLE
  2
LTYPE
  5
5
330
0
100
AcDbSymbolTable
 70
    25
  0
LTYPE
  5
13
330
5
100
AcDbSymbolTableRecord
100
AcDbLinetypeTableRecord
  2
BYBLOCK
 70
     0
  3

 72
    65
 73
     0
 40
0.0
  0
LTYPE
  5
14
330
5
100
AcDbSymbolTableRecord
100
AcDbLinetypeTableRecord
  2
BYLAYER
 70
     0
  3

 72
    65
 73
     0
 40
0.0
  0
LTYPE
  5
15
330
5
100
AcDbSymbolTableRecord
100
AcDbLinetypeTableRecord
  2
CONTINUOUS
 70
     0
  3
Solid line
 72
    65
 73
     0
 40
0.0
  0
LTYPE
  5
22
330
5
100
AcDbSymbolTableRecord
100
AcDbLinetypeTableRecord
  2
BORDER
 70
     0
  3
__ __ . __ __ . __ __ . __ __ . __ __ . __ __ .
 72
    65
 73
     6
 40
1.75
 49
0.5
 74
     0
 49
-0.25
 74
     0
 49
0.5
 74
     0
 49
-0.25
 74
     0
 49
0.5
 74
     0
 49
-0.25
 74
     0
  0
LTYPE
  5
23
330
5
100
AcDbSymbolTableRecord
100
AcDbLinetypeTableRecord
  2
BORDER2
 70
     0
  3
__.__.__.__.__.__.__.__.__.__.__.__.__.__.__.__
 72
    65
 73
     6
 40
0.875
 49
0.25
 74
     0
 49
-0.125
 74
     0
 49
0.25
 74
     0
 49
-0.125
 74
     0
 49
0.25
 74
     0
 49
-0.125
 74
     0
  0
LTYPE
  5
24
330
5
100
AcDbSymbolTableRecord
100
AcDbLinetypeTableRecord
  2
BORDERX2
 70
     0
  3
____  ____  .  ____  ____  .  
 72
    65
 73
     6
 40
3.5
 49
1.0
 74
     0
 49
-0.5
 74
     0
 49
1.0
 74
     0
 49
-0.5
 74
     0
 49
1.0
 74
     0
 49
-0.5
 74
     0
  0
LTYPE
  5
25
330
5
100
AcDbSymbolTableRecord
100
AcDbLinetypeTableRecord
  2
CENTER
 70
     0
  3
____ _ ____ _ ____ _ ____ _ ____ _ ____ _ ____
 72
    65
 73
     4
 40
2.0
 49
1.25
 74
     0
 49
-0.25
 74
     0
 49
0.25
 74
     0
 49
-0.25
 74
     0
  0
LTYPE
  5
26
330
5
100
AcDbSymbolTableRecord
100
AcDbLinetypeTableRecord
  2
CENTER2
 70
     0
  3
____ _ ____ _ ____ _ ____ _ ____ _ ____ _ ____
 72
    65
 73
     4
 40
1.125
 49
0.75
 74
     0
 49
-0.125
 74
     0
 49
0.125
 74
     0
 49
-0.125
 74
     0
  0
LTYPE
  5
27
330
5
100
AcDbSymbolTableRecord
100
AcDbLinetypeTableRecord
  2
CENTERX2
 70
     0
  3
________  __  ________  __  ________  __  
 72
    65
 73
     4
 40
4.0
 49
2.5
 74
     0
 49
-0.5
 74
     0
 49
0.5
 74
     0
 49
-0.5
 74
     0
  0
LTYPE
  5
28
330
5
100
AcDbSymbolTableRecord
100
AcDbLinetypeTableRecord
  2
DASHDOT
 70
     0
  3
__ . __ . __ . __ . __ . __ . __ . 
 72
    65
 73
     4
 40
1.0
 49
0.5
 74
     0
 49
-0.25
 74
     0
 49
0.0
 74
     0
 49
-0.25
 74
     0
  0
LTYPE
  5
29
330
5
100
AcDbSymbolTableRecord
100
AcDbLinetypeTableRecord
  2
DASHDOT2
 70
     0
  3
_._._._._._._._._._._._._._._._.
 72
    65
 73
     4
 40
0.5
 49
0.25
 74
     0
 49
-0.125
 74
     0
 49
0.0
 74
     0
 49
-0.125
 74
     0
  0
LTYPE
  5
2A
330
5
100
AcDbSymbolTableRecord
100
AcDbLinetypeTableRecord
  2
DASHDOTX2
 70
     0
  3
____  .  ____  .  ____  .  ____  .  
 72
    65
 73
     4
 40
2.0
 49
1.0
 74
     0
 49
-0.5
 74
     0
 49
0.0
 74
     0
 49
-0.5
 74
     0
  0
LTYPE
  5
2B
330
5
100
AcDbSymbolTableRecord
100
AcDbLinetypeTableRecord
  2
DASHED
 70
     0
  3
__ __ __ __ __ __ __ __ __ __ __ __ 
 72
    65
 73
     2
 40
0.75
 49
0.5
 74
     0
 49
-0.25
 74
     0
  0
LTYPE
  5
2C
330
5
100
AcDbSymbolTableRecord
100
AcDbLinetypeTableRecord
  2
DASHED2
 70
     0
  3
_ _ _ _ _ _ _ _ _ _ _ _ _ _ _ _ _ _ 
 72
    65
 73
     2
 40
0.375
 49
0.25
 74
     0
 49
-0.125
 74
     0
  0
LTYPE
  5
2D
330
5
100
AcDbSymbolTableRecord
100
AcDbLinetypeTableRecord
  2
DASHEDX2
 70
     0
  3
____  ____  ____  ____  ____  ____  
 72
    65
 73
     2
 40
1.5
 49
1.0
 74
     0
 49
-0.5
 74
     0
  0
LTYPE
  5
2E
330
5
100
AcDbSymbolTableRecord
100
AcDbLinetypeTableRecord
  2
DIVIDE
 70
     0
  3
____ . . ____ . . ____ . . ____ . . 
 72
    65
 73
     6
 40
1.25
 49
0.5
 74
     0
 49
-0.25
 74
     0
 49
0.0
 74
     0
 49
-0.25
 74
     0
 49
0.0
 74
     0
 49
-0.25
 74
     0
  0
LTYPE
  5
2F
330
5
100
AcDbSymbolTableRecord
100
AcDbLinetypeTableRecord
  2
DIVIDE2
 70
     0
  3
__..__..__..__..__..__..__..__..__..
 72
    65
 73
     6
 40
0.625
 49
0.25
 74
     0
 49
-0.125
 74
     0
 49
0.0
 74
     0
 49
-0.125
 74
     0
 49
0.0
 74
     0
 49
-0.125
 74
     0
  0
LTYPE
  5
30
330
5
100
AcDbSymbolTableRecord
100
AcDbLinetypeTableRecord
  2
DIVIDEX2
 70
     0
  3
________  .  .  ________  .  .  ________  .  . 
 72
    65
 73
     6
 40
2.5
 49
1.0
 74
     0
 49
-0.5
 74
     0
 49
0.0
 74
     0
 49
-0.5
 74
     0
 49
0.0
 74
     0
 49
-0.5
 74
     0
  0
LTYPE
  5
31
330
5
100
AcDbSymbolTableRecord
100
AcDbLinetypeTableRecord
  2
DOT
 70
     0
  3
. . . . . . . . . . . . . . . . . . 
 72
    65
 73
     2
 40
0.25
 49
0.0
 74
     0
 49
-0.25
 74
     0
  0
LTYPE
  5
32
330
5
100
AcDbSymbolTableRecord
100
AcDbLinetypeTableRecord
  2
DOT2
 70
     0
  3
....................................
 72
    65
 73
     2
 40
0.125
 49
0.0
 74
     0
 49
-0.125
 74
     0
  0
LTYPE
  5
33
330
5
100
AcDbSymbolTableRecord
100
AcDbLinetypeTableRecord
  2
DOTX2
 70
     0
  3
.  .  .  .  .  .  .  .  .  .  .  .  .  
 72
    65
 73
     2
 40
0.5
 49
0.0
 74
     0
 49
-0.5
 74
     0
  0
LTYPE
  5
34
330
5
100
AcDbSymbolTableRecord
100
AcDbLinetypeTableRecord
  2
HIDDEN
 70
     0
  3
__ __ __ __ __ __ __ __ __ __ __ __ 
 72
    65
 73
     2
 40
0.375
 49
0.25
 74
     0
 49
-0.125
 74
     0
  0
LTYPE
  5
35
330
5
100
AcDbSymbolTableRecord
100
AcDbLinetypeTableRecord
  2
HIDDEN2
 70
     0
  3
_ _ _ _ _ _ _ _ _ _ _ _ _ _ _ _ _ _ 
 72
    65
 73
     2
 40
0.1875
 49
0.125
 74
     0
 49
-0.0625
 74
     0
  0
LTYPE
  5
36
330
5
100
AcDbSymbolTableRecord
100
AcDbLinetypeTableRecord
  2
HIDDENX2
 70
     0
  3
____ ____ ____ ____ ____ ____ ____ 
 72
    65
 73
     2
 40
0.75
 49
0.5
 74
     0
 49
-0.25
 74
     0
  0
LTYPE
  5
37
330
5
100
AcDbSymbolTableRecord
100
AcDbLinetypeTableRecord
  2
PHANTOM
 70
     0
  3
______  __  __  ______  __  __  
 72
    65
 73
     6
 40
2.5
 49
1.25
 74
     0
 49
-0.25
 74
     0
 49
0.25
 74
     0
 49
-0.25
 74
     0
 49
0.25
 74
     0
 49
-0.25
 74
     0
  0
LTYPE
  5
38
330
5
100
AcDbSymbolTableRecord
100
AcDbLinetypeTableRecord
  2
PHANTOM2
 70
     0
  3
___ _ _ ___ _ _ ___ _ _ ___ _ _ 
 72
    65
 73
     6
 40
1.25
 49
0.625
 74
     0
 49
-0.125
 74
     0
 49
0.125
 74
     0
 49
-0.125
 74
     0
 49
0.125
 74
     0
 49
-0.125
 74
     0
  0
LTYPE
  5
39
330
5
100
AcDbSymbolTableRecord
100
AcDbLinetypeTableRecord
  2
PHANTOMX2
 70
     0
  3
___ _ _ ___ _ _ ___ _ _ ___ _ _ 
 72
    65
 73
     6
 40
5.0
 49
2.5
 74
     0
 49
-0.5
 74
     0
 49
0.5
 74
     0
 49
-0.5
 74
     0
 49
0.5
 74
     0
 49
-0.5
 74
     0
  0
ENDTAB
  0
TABLE
  2
LAYER
  5
2
330
0
100
AcDbSymbolTable
 70
   256
  0
LAYER
  5
10
330
2
100
AcDbSymbolTableRecord
100
AcDbLayerTableRecord
  2
0
 70
     0
 62
     7
  6
CONTINUOUS
  0
LAYER
  5
3A
330
2
100
AcDbSymbolTableRecord
100
AcDbLayerTableRecord
  2
1
 70
     0
 62
     1
  6
CONTINUOUS
  0
LAYER
  5
3B
330
2
100
AcDbSymbolTableRecord
100
AcDbLayerTableRecord
  2
2
 70
     0
 62
     2
  6
CONTINUOUS
  0
LAYER
  5
3C
330
2
100
AcDbSymbolTableRecord
100
AcDbLayerTableRecord
  2
3
 70
     0
 62
     3
  6
CONTINUOUS
  0
LAYER
  5
3D
330
2
100
AcDbSymbolTableRecord
100
AcDbLayerTableRecord
  2
4
 70
     0
 62
     4
  6
CONTINUOUS
  0
LAYER
  5
3E
330
2
100
AcDbSymbolTableRecord
100
AcDbLayerTableRecord
  2
5
 70
     0
 62
     5
  6
CONTINUOUS
  0
LAYER
  5
3F
330
2
100
AcDbSymbolTableRecord
100
AcDbLayerTableRecord
  2
6
 70
     0
 62
     6
  6
CONTINUOUS
  0
LAYER
  5
40
330
2
100
AcDbSymbolTableRecord
100
AcDbLayerTableRecord
  2
7
 70
     0
 62
     7
  6
CONTINUOUS
  0
LAYER
  5
41
330
2
100
AcDbSymbolTableRecord
100
AcDbLayerTableRecord
  2
8
 70
     0
 62
     8
  6
CONTINUOUS
  0
LAYER
  5
42
330
2
100
AcDbSymbolTableRecord
100
AcDbLayerTableRecord
  2
9
 70
     0
 62
     9
  6
CONTINUOUS
  0
LAYER
  5
43
330
2
100
AcDbSymbolTableRecord
100
AcDbLayerTableRecord
  2
10
 70
     0
 62
    10
  6
CONTINUOUS
  0
LAYER
  5
44
330
2
100
AcDbSymbolTableRecord
100
AcDbLayerTableRecord
  2
11
 70
     0
 62
    11
  6
CONTINUOUS
  0
LAYER
  5
45
330
2
100
AcDbSymbolTableRecord
100
AcDbLayerTableRecord
  2
12
 70
     0
 62
    12
  6
CONTINUOUS
  0
LAYER
  5
46
330
2
100
AcDbSymbolTableRecord
100
AcDbLayerTableRecord
  2
13
 70
     0
 62
    13
  6
CONTINUOUS
  0
LAYER
  5
47
330
2
100
AcDbSymbolTableRecord
100
AcDbLayerTableRecord
  2
14
 70
     0
 62
    14
  6
CONTINUOUS
  0
LAYER
  5
48
330
2
100
AcDbSymbolTableRecord
100
AcDbLayerTableRecord
  2
15
 70
     0
 62
    15
  6
CONTINUOUS
  0
LAYER
  5
49
330
2
100
AcDbSymbolTableRecord
100
AcDbLayerTableRecord
  2
16
 70
     0
 62
    16
  6
CONTINUOUS
  0
LAYER
  5
4A
330
2
100
AcDbSymbolTableRecord
100
AcDbLayerTableRecord
  2
17
 70
     0
 62
    17
  6
CONTINUOUS
  0
LAYER
  5
4B
330
2
100
AcDbSymbolTableRecord
100
AcDbLayerTableRecord
  2
18
 70
     0
 62
    18
  6
CONTINUOUS
  0
LAYER
  5
4C
330
2
100
AcDbSymbolTableRecord
100
AcDbLayerTableRecord
  2
19
 70
     0
 62
    19
  6
CONTINUOUS
  0
LAYER
  5
4D
330
2
100
AcDbSymbolTableRecord
100
AcDbLayerTableRecord
  2
20
 70
     0
 62
    20
  6
CONTINUOUS
  0
LAYER
  5
4E
330
2
100
AcDbSymbolTableRecord
100
AcDbLayerTableRecord
  2
21
 70
     0
 62
    21
  6
CONTINUOUS
  0
LAYER
  5
4F
330
2
100
AcDbSymbolTableRecord
100
AcDbLayerTableRecord
  2
22
 70
     0
 62
    22
  6
CONTINUOUS
  0
LAYER
  5
50
330
2
100
AcDbSymbolTableRecord
100
AcDbLayerTableRecord
  2
23
 70
     0
 62
    23
  6
CONTINUOUS
  0
LAYER
  5
51
330
2
100
AcDbSymbolTableRecord
100
AcDbLayerTableRecord
  2
24
 70
     0
 62
    24
  6
CONTINUOUS
  0
LAYER
  5
52
330
2
100
AcDbSymbolTableRecord
100
AcDbLayerTableRecord
  2
25
 70
     0
 62
    25
  6
CONTINUOUS
  0
LAYER
  5
53
330
2
100
AcDbSymbolTableRecord
100
AcDbLayerTableRecord
  2
26
 70
     0
 62
    26
  6
CONTINUOUS
  0
LAYER
  5
54
330
2
100
AcDbSymbolTableRecord
100
AcDbLayerTableRecord
  2
27
 70
     0
 62
    27
  6
CONTINUOUS
  0
LAYER
  5
55
330
2
100
AcDbSymbolTableRecord
100
AcDbLayerTableRecord
  2
28
 70
     0
 62
    28
  6
CONTINUOUS
  0
LAYER
  5
56
330
2
100
AcDbSymbolTableRecord
100
AcDbLayerTableRecord
  2
29
 70
     0
 62
    29
  6
CONTINUOUS
  0
LAYER
  5
57
330
2
100
AcDbSymbolTableRecord
100
AcDbLayerTableRecord
  2
30
 70
     0
 62
    30
  6
CONTINUOUS
  0
LAYER
  5
58
330
2
100
AcDbSymbolTableRecord
100
AcDbLayerTableRecord
  2
31
 70
     0
 62
    31
  6
CONTINUOUS
  0
LAYER
  5
59
330
2
100
AcDbSymbolTableRecord
100
AcDbLayerTableRecord
  2
32
 70
     0
 62
    32
  6
CONTINUOUS
  0
LAYER
  5
5A
330
2
100
AcDbSymbolTableRecord
100
AcDbLayerTableRecord
  2
33
 70
     0
 62
    33
  6
CONTINUOUS
  0
LAYER
  5
5B
330
2
100
AcDbSymbolTableRecord
100
AcDbLayerTableRecord
  2
34
 70
     0
 62
    34
  6
CONTINUOUS
  0
LAYER
  5
5C
330
2
100
AcDbSymbolTableRecord
100
AcDbLayerTableRecord
  2
35
 70
     0
 62
    35
  6
CONTINUOUS
  0
LAYER
  5
5D
330
2
100
AcDbSymbolTableRecord
100
AcDbLayerTableRecord
  2
36
 70
     0
 62
    36
  6
CONTINUOUS
  0
LAYER
  5
5E
330
2
100
AcDbSymbolTableRecord
100
AcDbLayerTableRecord
  2
37
 70
     0
 62
    37
  6
CONTINUOUS
  0
LAYER
  5
5F
330
2
100
AcDbSymbolTableRecord
100
AcDbLayerTableRecord
  2
38
 70
     0
 62
    38
  6
CONTINUOUS
  0
LAYER
  5
60
330
2
100
AcDbSymbolTableRecord
100
AcDbLayerTableRecord
  2
39
 70
     0
 62
    39
  6
CONTINUOUS
  0
LAYER
  5
61
330
2
100
AcDbSymbolTableRecord
100
AcDbLayerTableRecord
  2
40
 70
     0
 62
    40
  6
CONTINUOUS
  0
LAYER
  5
62
330
2
100
AcDbSymbolTableRecord
100
AcDbLayerTableRecord
  2
41
 70
     0
 62
    41
  6
CONTINUOUS
  0
LAYER
  5
63
330
2
100
AcDbSymbolTableRecord
100
AcDbLayerTableRecord
  2
42
 70
     0
 62
    42
  6
CONTINUOUS
  0
LAYER
  5
64
330
2
100
AcDbSymbolTableRecord
100
AcDbLayerTableRecord
  2
43
 70
     0
 62
    43
  6
CONTINUOUS
  0
LAYER
  5
65
330
2
100
AcDbSymbolTableRecord
100
AcDbLayerTableRecord
  2
44
 70
     0
 62
    44
  6
CONTINUOUS
  0
LAYER
  5
66
330
2
100
AcDbSymbolTableRecord
100
AcDbLayerTableRecord
  2
45
 70
     0
 62
    45
  6
CONTINUOUS
  0
LAYER
  5
67
330
2
100
AcDbSymbolTableRecord
100
AcDbLayerTableRecord
  2
46
 70
     0
 62
    46
  6
CONTINUOUS
  0
LAYER
  5
68
330
2
100
AcDbSymbolTableRecord
100
AcDbLayerTableRecord
  2
47
 70
     0
 62
    47
  6
CONTINUOUS
  0
LAYER
  5
69
330
2
100
AcDbSymbolTableRecord
100
AcDbLayerTableRecord
  2
48
 70
     0
 62
    48
  6
CONTINUOUS
  0
LAYER
  5
6A
330
2
100
AcDbSymbolTableRecord
100
AcDbLayerTableRecord
  2
49
 70
     0
 62
    49
  6
CONTINUOUS
  0
LAYER
  5
6B
330
2
100
AcDbSymbolTableRecord
100
AcDbLayerTableRecord
  2
50
 70
     0
 62
    50
  6
CONTINUOUS
  0
LAYER
  5
6C
330
2
100
AcDbSymbolTableRecord
100
AcDbLayerTableRecord
  2
51
 70
     0
 62
    51
  6
CONTINUOUS
  0
LAYER
  5
6D
330
2
100
AcDbSymbolTableRecord
100
AcDbLayerTableRecord
  2
52
 70
     0
 62
    52
  6
CONTINUOUS
  0
LAYER
  5
6E
330
2
100
AcDbSymbolTableRecord
100
AcDbLayerTableRecord
  2
53
 70
     0
 62
    53
  6
CONTINUOUS
  0
LAYER
  5
6F
330
2
100
AcDbSymbolTableRecord
100
AcDbLayerTableRecord
  2
54
 70
     0
 62
    54
  6
CONTINUOUS
  0
LAYER
  5
70
330
2
100
AcDbSymbolTableRecord
100
AcDbLayerTableRecord
  2
55
 70
     0
 62
    55
  6
CONTINUOUS
  0
LAYER
  5
71
330
2
100
AcDbSymbolTableRecord
100
AcDbLayerTableRecord
  2
56
 70
     0
 62
    56
  6
CONTINUOUS
  0
LAYER
  5
72
330
2
100
AcDbSymbolTableRecord
100
AcDbLayerTableRecord
  2
57
 70
     0
 62
    57
  6
CONTINUOUS
  0
LAYER
  5
73
330
2
100
AcDbSymbolTableRecord
100
AcDbLayerTableRecord
  2
58
 70
     0
 62
    58
  6
CONTINUOUS
  0
LAYER
  5
74
330
2
100
AcDbSymbolTableRecord
100
AcDbLayerTableRecord
  2
59
 70
     0
 62
    59
  6
CONTINUOUS
  0
LAYER
  5
75
330
2
100
AcDbSymbolTableRecord
100
AcDbLayerTableRecord
  2
60
 70
     0
 62
    60
  6
CONTINUOUS
  0
LAYER
  5
76
330
2
100
AcDbSymbolTableRecord
100
AcDbLayerTableRecord
  2
61
 70
     0
 62
    61
  6
CONTINUOUS
  0
LAYER
  5
77
330
2
100
AcDbSymbolTableRecord
100
AcDbLayerTableRecord
  2
62
 70
     0
 62
    62
  6
CONTINUOUS
  0
LAYER
  5
78
330
2
100
AcDbSymbolTableRecord
100
AcDbLayerTableRecord
  2
63
 70
     0
 62
    63
  6
CONTINUOUS
  0
LAYER
  5
79
330
2
100
AcDbSymbolTableRecord
100
AcDbLayerTableRecord
  2
64
 70
     0
 62
    64
  6
CONTINUOUS
  0
LAYER
  5
7A
330
2
100
AcDbSymbolTableRecord
100
AcDbLayerTableRecord
  2
65
 70
     0
 62
    65
  6
CONTINUOUS
  0
LAYER
  5
7B
330
2
100
AcDbSymbolTableRecord
100
AcDbLayerTableRecord
  2
66
 70
     0
 62
    66
  6
CONTINUOUS
  0
LAYER
  5
7C
330
2
100
AcDbSymbolTableRecord
100
AcDbLayerTableRecord
  2
67
 70
     0
 62
    67
  6
CONTINUOUS
  0
LAYER
  5
7D
330
2
100
AcDbSymbolTableRecord
100
AcDbLayerTableRecord
  2
68
 70
     0
 62
    68
  6
CONTINUOUS
  0
LAYER
  5
7E
330
2
100
AcDbSymbolTableRecord
100
AcDbLayerTableRecord
  2
69
 70
     0
 62
    69
  6
CONTINUOUS
  0
LAYER
  5
7F
330
2
100
AcDbSymbolTableRecord
100
AcDbLayerTableRecord
  2
70
 70
     0
 62
    70
  6
CONTINUOUS
  0
LAYER
  5
80
330
2
100
AcDbSymbolTableRecord
100
AcDbLayerTableRecord
  2
71
 70
     0
 62
    71
  6
CONTINUOUS
  0
LAYER
  5
81
330
2
100
AcDbSymbolTableRecord
100
AcDbLayerTableRecord
  2
72
 70
     0
 62
    72
  6
CONTINUOUS
  0
LAYER
  5
82
330
2
100
AcDbSymbolTableRecord
100
AcDbLayerTableRecord
  2
73
 70
     0
 62
    73
  6
CONTINUOUS
  0
LAYER
  5
83
330
2
100
AcDbSymbolTableRecord
100
AcDbLayerTableRecord
  2
74
 70
     0
 62
    74
  6
CONTINUOUS
  0
LAYER
  5
84
330
2
100
AcDbSymbolTableRecord
100
AcDbLayerTableRecord
  2
75
 70
     0
 62
    75
  6
CONTINUOUS
  0
LAYER
  5
85
330
2
100
AcDbSymbolTableRecord
100
AcDbLayerTableRecord
  2
76
 70
     0
 62
    76
  6
CONTINUOUS
  0
LAYER
  5
86
330
2
100
AcDbSymbolTableRecord
100
AcDbLayerTableRecord
  2
77
 70
     0
 62
    77
  6
CONTINUOUS
  0
LAYER
  5
87
330
2
100
AcDbSymbolTableRecord
100
AcDbLayerTableRecord
  2
78
 70
     0
 62
    78
  6
CONTINUOUS
  0
LAYER
  5
88
330
2
100
AcDbSymbolTableRecord
100
AcDbLayerTableRecord
  2
79
 70
     0
 62
    79
  6
CONTINUOUS
  0
LAYER
  5
89
330
2
100
AcDbSymbolTableRecord
100
AcDbLayerTableRecord
  2
80
 70
     0
 62
    80
  6
CONTINUOUS
  0
LAYER
  5
8A
330
2
100
AcDbSymbolTableRecord
100
AcDbLayerTableRecord
  2
81
 70
     0
 62
    81
  6
CONTINUOUS
  0
LAYER
  5
8B
330
2
100
AcDbSymbolTableRecord
100
AcDbLayerTableRecord
  2
82
 70
     0
 62
    82
  6
CONTINUOUS
  0
LAYER
  5
8C
330
2
100
AcDbSymbolTableRecord
100
AcDbLayerTableRecord
  2
83
 70
     0
 62
    83
  6
CONTINUOUS
  0
LAYER
  5
8D
330
2
100
AcDbSymbolTableRecord
100
AcDbLayerTableRecord
  2
84
 70
     0
 62
    84
  6
CONTINUOUS
  0
LAYER
  5
8E
330
2
100
AcDbSymbolTableRecord
100
AcDbLayerTableRecord
  2
85
 70
     0
 62
    85
  6
CONTINUOUS
  0
LAYER
  5
8F
330
2
100
AcDbSymbolTableRecord
100
AcDbLayerTableRecord
  2
86
 70
     0
 62
    86
  6
CONTINUOUS
  0
LAYER
  5
90
330
2
100
AcDbSymbolTableRecord
100
AcDbLayerTableRecord
  2
87
 70
     0
 62
    87
  6
CONTINUOUS
  0
LAYER
  5
91
330
2
100
AcDbSymbolTableRecord
100
AcDbLayerTableRecord
  2
88
 70
     0
 62
    88
  6
CONTINUOUS
  0
LAYER
  5
92
330
2
100
AcDbSymbolTableRecord
100
AcDbLayerTableRecord
  2
89
 70
     0
 62
    89
  6
CONTINUOUS
  0
LAYER
  5
93
330
2
100
AcDbSymbolTableRecord
100
AcDbLayerTableRecord
  2
90
 70
     0
 62
    90
  6
CONTINUOUS
  0
LAYER
  5
94
330
2
100
AcDbSymbolTableRecord
100
AcDbLayerTableRecord
  2
91
 70
     0
 62
    91
  6
CONTINUOUS
  0
LAYER
  5
95
330
2
100
AcDbSymbolTableRecord
100
AcDbLayerTableRecord
  2
92
 70
     0
 62
    92
  6
CONTINUOUS
  0
LAYER
  5
96
330
2
100
AcDbSymbolTableRecord
100
AcDbLayerTableRecord
  2
93
 70
     0
 62
    93
  6
CONTINUOUS
  0
LAYER
  5
97
330
2
100
AcDbSymbolTableRecord
100
AcDbLayerTableRecord
  2
94
 70
     0
 62
    94
  6
CONTINUOUS
  0
LAYER
  5
98
330
2
100
AcDbSymbolTableRecord
100
AcDbLayerTableRecord
  2
95
 70
     0
 62
    95
  6
CONTINUOUS
  0
LAYER
  5
99
330
2
100
AcDbSymbolTableRecord
100
AcDbLayerTableRecord
  2
96
 70
     0
 62
    96
  6
CONTINUOUS
  0
LAYER
  5
9A
330
2
100
AcDbSymbolTableRecord
100
AcDbLayerTableRecord
  2
97
 70
     0
 62
    97
  6
CONTINUOUS
  0
LAYER
  5
9B
330
2
100
AcDbSymbolTableRecord
100
AcDbLayerTableRecord
  2
98
 70
     0
 62
    98
  6
CONTINUOUS
  0
LAYER
  5
9C
330
2
100
AcDbSymbolTableRecord
100
AcDbLayerTableRecord
  2
99
 70
     0
 62
    99
  6
CONTINUOUS
  0
LAYER
  5
9D
330
2
100
AcDbSymbolTableRecord
100
AcDbLayerTableRecord
  2
100
 70
     0
 62
   100
  6
CONTINUOUS
  0
LAYER
  5
9E
330
2
100
AcDbSymbolTableRecord
100
AcDbLayerTableRecord
  2
101
 70
     0
 62
   101
  6
CONTINUOUS
  0
LAYER
  5
9F
330
2
100
AcDbSymbolTableRecord
100
AcDbLayerTableRecord
  2
102
 70
     0
 62
   102
  6
CONTINUOUS
  0
LAYER
  5
A0
330
2
100
AcDbSymbolTableRecord
100
AcDbLayerTableRecord
  2
103
 70
     0
 62
   103
  6
CONTINUOUS
  0
LAYER
  5
A1
330
2
100
AcDbSymbolTableRecord
100
AcDbLayerTableRecord
  2
104
 70
     0
 62
   104
  6
CONTINUOUS
  0
LAYER
  5
A2
330
2
100
AcDbSymbolTableRecord
100
AcDbLayerTableRecord
  2
105
 70
     0
 62
   105
  6
CONTINUOUS
  0
LAYER
  5
A3
330
2
100
AcDbSymbolTableRecord
100
AcDbLayerTableRecord
  2
106
 70
     0
 62
   106
  6
CONTINUOUS
  0
LAYER
  5
A4
330
2
100
AcDbSymbolTableRecord
100
AcDbLayerTableRecord
  2
107
 70
     0
 62
   107
  6
CONTINUOUS
  0
LAYER
  5
A5
330
2
100
AcDbSymbolTableRecord
100
AcDbLayerTableRecord
  2
108
 70
     0
 62
   108
  6
CONTINUOUS
  0
LAYER
  5
A6
330
2
100
AcDbSymbolTableRecord
100
AcDbLayerTableRecord
  2
109
 70
     0
 62
   109
  6
CONTINUOUS
  0
LAYER
  5
A7
330
2
100
AcDbSymbolTableRecord
100
AcDbLayerTableRecord
  2
110
 70
     0
 62
   110
  6
CONTINUOUS
  0
LAYER
  5
A8
330
2
100
AcDbSymbolTableRecord
100
AcDbLayerTableRecord
  2
111
 70
     0
 62
   111
  6
CONTINUOUS
  0
LAYER
  5
A9
330
2
100
AcDbSymbolTableRecord
100
AcDbLayerTableRecord
  2
112
 70
     0
 62
   112
  6
CONTINUOUS
  0
LAYER
  5
AA
330
2
100
AcDbSymbolTableRecord
100
AcDbLayerTableRecord
  2
113
 70
     0
 62
   113
  6
CONTINUOUS
  0
LAYER
  5
AB
330
2
100
AcDbSymbolTableRecord
100
AcDbLayerTableRecord
  2
114
 70
     0
 62
   114
  6
CONTINUOUS
  0
LAYER
  5
AC
330
2
100
AcDbSymbolTableRecord
100
AcDbLayerTableRecord
  2
115
 70
     0
 62
   115
  6
CONTINUOUS
  0
LAYER
  5
AD
330
2
100
AcDbSymbolTableRecord
100
AcDbLayerTableRecord
  2
116
 70
     0
 62
   116
  6
CONTINUOUS
  0
LAYER
  5
AE
330
2
100
AcDbSymbolTableRecord
100
AcDbLayerTableRecord
  2
117
 70
     0
 62
   117
  6
CONTINUOUS
  0
LAYER
  5
AF
330
2
100
AcDbSymbolTableRecord
100
AcDbLayerTableRecord
  2
118
 70
     0
 62
   118
  6
CONTINUOUS
  0
LAYER
  5
B0
330
2
100
AcDbSymbolTableRecord
100
AcDbLayerTableRecord
  2
119
 70
     0
 62
   119
  6
CONTINUOUS
  0
LAYER
  5
B1
330
2
100
AcDbSymbolTableRecord
100
AcDbLayerTableRecord
  2
120
 70
     0
 62
   120
  6
CONTINUOUS
  0
LAYER
  5
B2
330
2
100
AcDbSymbolTableRecord
100
AcDbLayerTableRecord
  2
121
 70
     0
 62
   121
  6
CONTINUOUS
  0
LAYER
  5
B3
330
2
100
AcDbSymbolTableRecord
100
AcDbLayerTableRecord
  2
122
 70
     0
 62
   122
  6
CONTINUOUS
  0
LAYER
  5
B4
330
2
100
AcDbSymbolTableRecord
100
AcDbLayerTableRecord
  2
123
 70
     0
 62
   123
  6
CONTINUOUS
  0
LAYER
  5
B5
330
2
100
AcDbSymbolTableRecord
100
AcDbLayerTableRecord
  2
124
 70
     0
 62
   124
  6
CONTINUOUS
  0
LAYER
  5
B6
330
2
100
AcDbSymbolTableRecord
100
AcDbLayerTableRecord
  2
125
 70
     0
 62
   125
  6
CONTINUOUS
  0
LAYER
  5
B7
330
2
100
AcDbSymbolTableRecord
100
AcDbLayerTableRecord
  2
126
 70
     0
 62
   126
  6
CONTINUOUS
  0
LAYER
  5
B8
330
2
100
AcDbSymbolTableRecord
100
AcDbLayerTableRecord
  2
127
 70
     0
 62
   127
  6
CONTINUOUS
  0
LAYER
  5
B9
330
2
100
AcDbSymbolTableRecord
100
AcDbLayerTableRecord
  2
128
 70
     0
 62
   128
  6
CONTINUOUS
  0
LAYER
  5
BA
330
2
100
AcDbSymbolTableRecord
100
AcDbLayerTableRecord
  2
129
 70
     0
 62
   129
  6
CONTINUOUS
  0
LAYER
  5
BB
330
2
100
AcDbSymbolTableRecord
100
AcDbLayerTableRecord
  2
130
 70
     0
 62
   130
  6
CONTINUOUS
  0
LAYER
  5
BC
330
2
100
AcDbSymbolTableRecord
100
AcDbLayerTableRecord
  2
131
 70
     0
 62
   131
  6
CONTINUOUS
  0
LAYER
  5
BD
330
2
100
AcDbSymbolTableRecord
100
AcDbLayerTableRecord
  2
132
 70
     0
 62
   132
  6
CONTINUOUS
  0
LAYER
  5
BE
330
2
100
AcDbSymbolTableRecord
100
AcDbLayerTableRecord
  2
133
 70
     0
 62
   133
  6
CONTINUOUS
  0
LAYER
  5
BF
330
2
100
AcDbSymbolTableRecord
100
AcDbLayerTableRecord
  2
134
 70
     0
 62
   134
  6
CONTINUOUS
  0
LAYER
  5
C0
330
2
100
AcDbSymbolTableRecord
100
AcDbLayerTableRecord
  2
135
 70
     0
 62
   135
  6
CONTINUOUS
  0
LAYER
  5
C1
330
2
100
AcDbSymbolTableRecord
100
AcDbLayerTableRecord
  2
136
 70
     0
 62
   136
  6
CONTINUOUS
  0
LAYER
  5
C2
330
2
100
AcDbSymbolTableRecord
100
AcDbLayerTableRecord
  2
137
 70
     0
 62
   137
  6
CONTINUOUS
  0
LAYER
  5
C3
330
2
100
AcDbSymbolTableRecord
100
AcDbLayerTableRecord
  2
138
 70
     0
 62
   138
  6
CONTINUOUS
  0
LAYER
  5
C4
330
2
100
AcDbSymbolTableRecord
100
AcDbLayerTableRecord
  2
139
 70
     0
 62
   139
  6
CONTINUOUS
  0
LAYER
  5
C5
330
2
100
AcDbSymbolTableRecord
100
AcDbLayerTableRecord
  2
140
 70
     0
 62
   140
  6
CONTINUOUS
  0
LAYER
  5
C6
330
2
100
AcDbSymbolTableRecord
100
AcDbLayerTableRecord
  2
141
 70
     0
 62
   141
  6
CONTINUOUS
  0
LAYER
  5
C7
330
2
100
AcDbSymbolTableRecord
100
AcDbLayerTableRecord
  2
142
 70
     0
 62
   142
  6
CONTINUOUS
  0
LAYER
  5
C8
330
2
100
AcDbSymbolTableRecord
100
AcDbLayerTableRecord
  2
143
 70
     0
 62
   143
  6
CONTINUOUS
  0
LAYER
  5
C9
330
2
100
AcDbSymbolTableRecord
100
AcDbLayerTableRecord
  2
144
 70
     0
 62
   144
  6
CONTINUOUS
  0
LAYER
  5
CA
330
2
100
AcDbSymbolTableRecord
100
AcDbLayerTableRecord
  2
145
 70
     0
 62
   145
  6
CONTINUOUS
  0
LAYER
  5
CB
330
2
100
AcDbSymbolTableRecord
100
AcDbLayerTableRecord
  2
146
 70
     0
 62
   146
  6
CONTINUOUS
  0
LAYER
  5
CC
330
2
100
AcDbSymbolTableRecord
100
AcDbLayerTableRecord
  2
147
 70
     0
 62
   147
  6
CONTINUOUS
  0
LAYER
  5
CD
330
2
100
AcDbSymbolTableRecord
100
AcDbLayerTableRecord
  2
148
 70
     0
 62
   148
  6
CONTINUOUS
  0
LAYER
  5
CE
330
2
100
AcDbSymbolTableRecord
100
AcDbLayerTableRecord
  2
149
 70
     0
 62
   149
  6
CONTINUOUS
  0
LAYER
  5
CF
330
2
100
AcDbSymbolTableRecord
100
AcDbLayerTableRecord
  2
150
 70
     0
 62
   150
  6
CONTINUOUS
  0
LAYER
  5
D0
330
2
100
AcDbSymbolTableRecord
100
AcDbLayerTableRecord
  2
151
 70
     0
 62
   151
  6
CONTINUOUS
  0
LAYER
  5
D1
330
2
100
AcDbSymbolTableRecord
100
AcDbLayerTableRecord
  2
152
 70
     0
 62
   152
  6
CONTINUOUS
  0
LAYER
  5
D2
330
2
100
AcDbSymbolTableRecord
100
AcDbLayerTableRecord
  2
153
 70
     0
 62
   153
  6
CONTINUOUS
  0
LAYER
  5
D3
330
2
100
AcDbSymbolTableRecord
100
AcDbLayerTableRecord
  2
154
 70
     0
 62
   154
  6
CONTINUOUS
  0
LAYER
  5
D4
330
2
100
AcDbSymbolTableRecord
100
AcDbLayerTableRecord
  2
155
 70
     0
 62
   155
  6
CONTINUOUS
  0
LAYER
  5
D5
330
2
100
AcDbSymbolTableRecord
100
AcDbLayerTableRecord
  2
156
 70
     0
 62
   156
  6
CONTINUOUS
  0
LAYER
  5
D6
330
2
100
AcDbSymbolTableRecord
100
AcDbLayerTableRecord
  2
157
 70
     0
 62
   157
  6
CONTINUOUS
  0
LAYER
  5
D7
330
2
100
AcDbSymbolTableRecord
100
AcDbLayerTableRecord
  2
158
 70
     0
 62
   158
  6
CONTINUOUS
  0
LAYER
  5
D8
330
2
100
AcDbSymbolTableRecord
100
AcDbLayerTableRecord
  2
159
 70
     0
 62
   159
  6
CONTINUOUS
  0
LAYER
  5
D9
330
2
100
AcDbSymbolTableRecord
100
AcDbLayerTableRecord
  2
160
 70
     0
 62
   160
  6
CONTINUOUS
  0
LAYER
  5
DA
330
2
100
AcDbSymbolTableRecord
100
AcDbLayerTableRecord
  2
161
 70
     0
 62
   161
  6
CONTINUOUS
  0
LAYER
  5
DB
330
2
100
AcDbSymbolTableRecord
100
AcDbLayerTableRecord
  2
162
 70
     0
 62
   162
  6
CONTINUOUS
  0
LAYER
  5
DC
330
2
100
AcDbSymbolTableRecord
100
AcDbLayerTableRecord
  2
163
 70
     0
 62
   163
  6
CONTINUOUS
  0
LAYER
  5
DD
330
2
100
AcDbSymbolTableRecord
100
AcDbLayerTableRecord
  2
164
 70
     0
 62
   164
  6
CONTINUOUS
  0
LAYER
  5
DE
330
2
100
AcDbSymbolTableRecord
100
AcDbLayerTableRecord
  2
165
 70
     0
 62
   165
  6
CONTINUOUS
  0
LAYER
  5
DF
330
2
100
AcDbSymbolTableRecord
100
AcDbLayerTableRecord
  2
166
 70
     0
 62
   166
  6
CONTINUOUS
  0
LAYER
  5
E0
330
2
100
AcDbSymbolTableRecord
100
AcDbLayerTableRecord
  2
167
 70
     0
 62
   167
  6
CONTINUOUS
  0
LAYER
  5
E1
330
2
100
AcDbSymbolTableRecord
100
AcDbLayerTableRecord
  2
168
 70
     0
 62
   168
  6
CONTINUOUS
  0
LAYER
  5
E2
330
2
100
AcDbSymbolTableRecord
100
AcDbLayerTableRecord
  2
169
 70
     0
 62
   169
  6
CONTINUOUS
  0
LAYER
  5
E3
330
2
100
AcDbSymbolTableRecord
100
AcDbLayerTableRecord
  2
170
 70
     0
 62
   170
  6
CONTINUOUS
  0
LAYER
  5
E4
330
2
100
AcDbSymbolTableRecord
100
AcDbLayerTableRecord
  2
171
 70
     0
 62
   171
  6
CONTINUOUS
  0
LAYER
  5
E5
330
2
100
AcDbSymbolTableRecord
100
AcDbLayerTableRecord
  2
172
 70
     0
 62
   172
  6
CONTINUOUS
  0
LAYER
  5
E6
330
2
100
AcDbSymbolTableRecord
100
AcDbLayerTableRecord
  2
173
 70
     0
 62
   173
  6
CONTINUOUS
  0
LAYER
  5
E7
330
2
100
AcDbSymbolTableRecord
100
AcDbLayerTableRecord
  2
174
 70
     0
 62
   174
  6
CONTINUOUS
  0
LAYER
  5
E8
330
2
100
AcDbSymbolTableRecord
100
AcDbLayerTableRecord
  2
175
 70
     0
 62
   175
  6
CONTINUOUS
  0
LAYER
  5
E9
330
2
100
AcDbSymbolTableRecord
100
AcDbLayerTableRecord
  2
176
 70
     0
 62
   176
  6
CONTINUOUS
  0
LAYER
  5
EA
330
2
100
AcDbSymbolTableRecord
100
AcDbLayerTableRecord
  2
177
 70
     0
 62
   177
  6
CONTINUOUS
  0
LAYER
  5
EB
330
2
100
AcDbSymbolTableRecord
100
AcDbLayerTableRecord
  2
178
 70
     0
 62
   178
  6
CONTINUOUS
  0
LAYER
  5
EC
330
2
100
AcDbSymbolTableRecord
100
AcDbLayerTableRecord
  2
179
 70
     0
 62
   179
  6
CONTINUOUS
  0
LAYER
  5
ED
330
2
100
AcDbSymbolTableRecord
100
AcDbLayerTableRecord
  2
180
 70
     0
 62
   180
  6
CONTINUOUS
  0
LAYER
  5
EE
330
2
100
AcDbSymbolTableRecord
100
AcDbLayerTableRecord
  2
181
 70
     0
 62
   181
  6
CONTINUOUS
  0
LAYER
  5
EF
330
2
100
AcDbSymbolTableRecord
100
AcDbLayerTableRecord
  2
182
 70
     0
 62
   182
  6
CONTINUOUS
  0
LAYER
  5
F0
330
2
100
AcDbSymbolTableRecord
100
AcDbLayerTableRecord
  2
183
 70
     0
 62
   183
  6
CONTINUOUS
  0
LAYER
  5
F1
330
2
100
AcDbSymbolTableRecord
100
AcDbLayerTableRecord
  2
184
 70
     0
 62
   184
  6
CONTINUOUS
  0
LAYER
  5
F2
330
2
100
AcDbSymbolTableRecord
100
AcDbLayerTableRecord
  2
185
 70
     0
 62
   185
  6
CONTINUOUS
  0
LAYER
  5
F3
330
2
100
AcDbSymbolTableRecord
100
AcDbLayerTableRecord
  2
186
 70
     0
 62
   186
  6
CONTINUOUS
  0
LAYER
  5
F4
330
2
100
AcDbSymbolTableRecord
100
AcDbLayerTableRecord
  2
187
 70
     0
 62
   187
  6
CONTINUOUS
  0
LAYER
  5
F5
330
2
100
AcDbSymbolTableRecord
100
AcDbLayerTableRecord
  2
188
 70
     0
 62
   188
  6
CONTINUOUS
  0
LAYER
  5
F6
330
2
100
AcDbSymbolTableRecord
100
AcDbLayerTableRecord
  2
189
 70
     0
 62
   189
  6
CONTINUOUS
  0
LAYER
  5
F7
330
2
100
AcDbSymbolTableRecord
100
AcDbLayerTableRecord
  2
190
 70
     0
 62
   190
  6
CONTINUOUS
  0
LAYER
  5
F8
330
2
100
AcDbSymbolTableRecord
100
AcDbLayerTableRecord
  2
191
 70
     0
 62
   191
  6
CONTINUOUS
  0
LAYER
  5
F9
330
2
100
AcDbSymbolTableRecord
100
AcDbLayerTableRecord
  2
192
 70
     0
 62
   192
  6
CONTINUOUS
  0
LAYER
  5
FA
330
2
100
AcDbSymbolTableRecord
100
AcDbLayerTableRecord
  2
193
 70
     0
 62
   193
  6
CONTINUOUS
  0
LAYER
  5
FB
330
2
100
AcDbSymbolTableRecord
100
AcDbLayerTableRecord
  2
194
 70
     0
 62
   194
  6
CONTINUOUS
  0
LAYER
  5
FC
330
2
100
AcDbSymbolTableRecord
100
AcDbLayerTableRecord
  2
195
 70
     0
 62
   195
  6
CONTINUOUS
  0
LAYER
  5
FD
330
2
100
AcDbSymbolTableRecord
100
AcDbLayerTableRecord
  2
196
 70
     0
 62
   196
  6
CONTINUOUS
  0
LAYER
  5
FE
330
2
100
AcDbSymbolTableRecord
100
AcDbLayerTableRecord
  2
197
 70
     0
 62
   197
  6
CONTINUOUS
  0
LAYER
  5
FF
330
2
100
AcDbSymbolTableRecord
100
AcDbLayerTableRecord
  2
198
 70
     0
 62
   198
  6
CONTINUOUS
  0
LAYER
  5
100
330
2
100
AcDbSymbolTableRecord
100
AcDbLayerTableRecord
  2
199
 70
     0
 62
   199
  6
CONTINUOUS
  0
LAYER
  5
101
330
2
100
AcDbSymbolTableRecord
100
AcDbLayerTableRecord
  2
200
 70
     0
 62
   200
  6
CONTINUOUS
  0
LAYER
  5
102
330
2
100
AcDbSymbolTableRecord
100
AcDbLayerTableRecord
  2
201
 70
     0
 62
   201
  6
CONTINUOUS
  0
LAYER
  5
103
330
2
100
AcDbSymbolTableRecord
100
AcDbLayerTableRecord
  2
202
 70
     0
 62
   202
  6
CONTINUOUS
  0
LAYER
  5
104
330
2
100
AcDbSymbolTableRecord
100
AcDbLayerTableRecord
  2
203
 70
     0
 62
   203
  6
CONTINUOUS
  0
LAYER
  5
105
330
2
100
AcDbSymbolTableRecord
100
AcDbLayerTableRecord
  2
204
 70
     0
 62
   204
  6
CONTINUOUS
  0
LAYER
  5
106
330
2
100
AcDbSymbolTableRecord
100
AcDbLayerTableRecord
  2
205
 70
     0
 62
   205
  6
CONTINUOUS
  0
LAYER
  5
107
330
2
100
AcDbSymbolTableRecord
100
AcDbLayerTableRecord
  2
206
 70
     0
 62
   206
  6
CONTINUOUS
  0
LAYER
  5
108
330
2
100
AcDbSymbolTableRecord
100
AcDbLayerTableRecord
  2
207
 70
     0
 62
   207
  6
CONTINUOUS
  0
LAYER
  5
109
330
2
100
AcDbSymbolTableRecord
100
AcDbLayerTableRecord
  2
208
 70
     0
 62
   208
  6
CONTINUOUS
  0
LAYER
  5
10A
330
2
100
AcDbSymbolTableRecord
100
AcDbLayerTableRecord
  2
209
 70
     0
 62
   209
  6
CONTINUOUS
  0
LAYER
  5
10B
330
2
100
AcDbSymbolTableRecord
100
AcDbLayerTableRecord
  2
210
 70
     0
 62
   210
  6
CONTINUOUS
  0
LAYER
  5
10C
330
2
100
AcDbSymbolTableRecord
100
AcDbLayerTableRecord
  2
211
 70
     0
 62
   211
  6
CONTINUOUS
  0
LAYER
  5
10D
330
2
100
AcDbSymbolTableRecord
100
AcDbLayerTableRecord
  2
212
 70
     0
 62
   212
  6
CONTINUOUS
  0
LAYER
  5
10E
330
2
100
AcDbSymbolTableRecord
100
AcDbLayerTableRecord
  2
213
 70
     0
 62
   213
  6
CONTINUOUS
  0
LAYER
  5
10F
330
2
100
AcDbSymbolTableRecord
100
AcDbLayerTableRecord
  2
214
 70
     0
 62
   214
  6
CONTINUOUS
  0
LAYER
  5
110
330
2
100
AcDbSymbolTableRecord
100
AcDbLayerTableRecord
  2
215
 70
     0
 62
   215
  6
CONTINUOUS
  0
LAYER
  5
111
330
2
100
AcDbSymbolTableRecord
100
AcDbLayerTableRecord
  2
216
 70
     0
 62
   216
  6
CONTINUOUS
  0
LAYER
  5
112
330
2
100
AcDbSymbolTableRecord
100
AcDbLayerTableRecord
  2
217
 70
     0
 62
   217
  6
CONTINUOUS
  0
LAYER
  5
113
330
2
100
AcDbSymbolTableRecord
100
AcDbLayerTableRecord
  2
218
 70
     0
 62
   218
  6
CONTINUOUS
  0
LAYER
  5
114
330
2
100
AcDbSymbolTableRecord
100
AcDbLayerTableRecord
  2
219
 70
     0
 62
   219
  6
CONTINUOUS
  0
LAYER
  5
115
330
2
100
AcDbSymbolTableRecord
100
AcDbLayerTableRecord
  2
220
 70
     0
 62
   220
  6
CONTINUOUS
  0
LAYER
  5
116
330
2
100
AcDbSymbolTableRecord
100
AcDbLayerTableRecord
  2
221
 70
     0
 62
   221
  6
CONTINUOUS
  0
LAYER
  5
117
330
2
100
AcDbSymbolTableRecord
100
AcDbLayerTableRecord
  2
222
 70
     0
 62
   222
  6
CONTINUOUS
  0
LAYER
  5
118
330
2
100
AcDbSymbolTableRecord
100
AcDbLayerTableRecord
  2
223
 70
     0
 62
   223
  6
CONTINUOUS
  0
LAYER
  5
119
330
2
100
AcDbSymbolTableRecord
100
AcDbLayerTableRecord
  2
224
 70
     0
 62
   224
  6
CONTINUOUS
  0
LAYER
  5
11A
330
2
100
AcDbSymbolTableRecord
100
AcDbLayerTableRecord
  2
225
 70
     0
 62
   225
  6
CONTINUOUS
  0
LAYER
  5
11B
330
2
100
AcDbSymbolTableRecord
100
AcDbLayerTableRecord
  2
226
 70
     0
 62
   226
  6
CONTINUOUS
  0
LAYER
  5
11C
330
2
100
AcDbSymbolTableRecord
100
AcDbLayerTableRecord
  2
227
 70
     0
 62
   227
  6
CONTINUOUS
  0
LAYER
  5
11D
330
2
100
AcDbSymbolTableRecord
100
AcDbLayerTableRecord
  2
228
 70
     0
 62
   228
  6
CONTINUOUS
  0
LAYER
  5
11E
330
2
100
AcDbSymbolTableRecord
100
AcDbLayerTableRecord
  2
229
 70
     0
 62
   229
  6
CONTINUOUS
  0
LAYER
  5
11F
330
2
100
AcDbSymbolTableRecord
100
AcDbLayerTableRecord
  2
230
 70
     0
 62
   230
  6
CONTINUOUS
  0
LAYER
  5
120
330
2
100
AcDbSymbolTableRecord
100
AcDbLayerTableRecord
  2
231
 70
     0
 62
   231
  6
CONTINUOUS
  0
LAYER
  5
121
330
2
100
AcDbSymbolTableRecord
100
AcDbLayerTableRecord
  2
232
 70
     0
 62
   232
  6
CONTINUOUS
  0
LAYER
  5
122
330
2
100
AcDbSymbolTableRecord
100
AcDbLayerTableRecord
  2
233
 70
     0
 62
   233
  6
CONTINUOUS
  0
LAYER
  5
123
330
2
100
AcDbSymbolTableRecord
100
AcDbLayerTableRecord
  2
234
 70
     0
 62
   234
  6
CONTINUOUS
  0
LAYER
  5
124
330
2
100
AcDbSymbolTableRecord
100
AcDbLayerTableRecord
  2
235
 70
     0
 62
   235
  6
CONTINUOUS
  0
LAYER
  5
125
330
2
100
AcDbSymbolTableRecord
100
AcDbLayerTableRecord
  2
236
 70
     0
 62
   236
  6
CONTINUOUS
  0
LAYER
  5
126
330
2
100
AcDbSymbolTableRecord
100
AcDbLayerTableRecord
  2
237
 70
     0
 62
   237
  6
CONTINUOUS
  0
LAYER
  5
127
330
2
100
AcDbSymbolTableRecord
100
AcDbLayerTableRecord
  2
238
 70
     0
 62
   238
  6
CONTINUOUS
  0
LAYER
  5
128
330
2
100
AcDbSymbolTableRecord
100
AcDbLayerTableRecord
  2
239
 70
     0
 62
   239
  6
CONTINUOUS
  0
LAYER
  5
129
330
2
100
AcDbSymbolTableRecord
100
AcDbLayerTableRecord
  2
240
 70
     0
 62
   240
  6
CONTINUOUS
  0
LAYER
  5
12A
330
2
100
AcDbSymbolTableRecord
100
AcDbLayerTableRecord
  2
241
 70
     0
 62
   241
  6
CONTINUOUS
  0
LAYER
  5
12B
330
2
100
AcDbSymbolTableRecord
100
AcDbLayerTableRecord
  2
242
 70
     0
 62
   242
  6
CONTINUOUS
  0
LAYER
  5
12C
330
2
100
AcDbSymbolTableRecord
100
AcDbLayerTableRecord
  2
243
 70
     0
 62
   243
  6
CONTINUOUS
  0
LAYER
  5
12D
330
2
100
AcDbSymbolTableRecord
100
AcDbLayerTableRecord
  2
244
 70
     0
 62
   244
  6
CONTINUOUS
  0
LAYER
  5
12E
330
2
100
AcDbSymbolTableRecord
100
AcDbLayerTableRecord
  2
245
 70
     0
 62
   245
  6
CONTINUOUS
  0
LAYER
  5
12F
330
2
100
AcDbSymbolTableRecord
100
AcDbLayerTableRecord
  2
246
 70
     0
 62
   246
  6
CONTINUOUS
  0
LAYER
  5
130
330
2
100
AcDbSymbolTableRecord
100
AcDbLayerTableRecord
  2
247
 70
     0
 62
   247
  6
CONTINUOUS
  0
LAYER
  5
131
330
2
100
AcDbSymbolTableRecord
100
AcDbLayerTableRecord
  2
248
 70
     0
 62
   248
  6
CONTINUOUS
  0
LAYER
  5
132
330
2
100
AcDbSymbolTableRecord
100
AcDbLayerTableRecord
  2
249
 70
     0
 62
   249
  6
CONTINUOUS
  0
LAYER
  5
133
330
2
100
AcDbSymbolTableRecord
100
AcDbLayerTableRecord
  2
250
 70
     0
 62
   250
  6
CONTINUOUS
  0
LAYER
  5
134
330
2
100
AcDbSymbolTableRecord
100
AcDbLayerTableRecord
  2
251
 70
     0
 62
   251
  6
CONTINUOUS
  0
LAYER
  5
135
330
2
100
AcDbSymbolTableRecord
100
AcDbLayerTableRecord
  2
252
 70
     0
 62
   252
  6
CONTINUOUS
  0
LAYER
  5
136
330
2
100
AcDbSymbolTableRecord
100
AcDbLayerTableRecord
  2
253
 70
     0
 62
   253
  6
CONTINUOUS
  0
LAYER
  5
137
330
2
100
AcDbSymbolTableRecord
100
AcDbLayerTableRecord
  2
254
 70
     0
 62
   254
  6
CONTINUOUS
  0
LAYER
  5
138
330
2
100
AcDbSymbolTableRecord
100
AcDbLayerTableRecord
  2
255
 70
     0
 62
   255
  6
CONTINUOUS
  0
ENDTAB
  0
TABLE
  2
STYLE
  5
3
330
0
100
AcDbSymbolTable
 70
     1
  0
STYLE
  5
11
330
3
100
AcDbSymbolTableRecord
100
AcDbTextStyleTableRecord
  2
STANDARD
 70
     0
 40
0.0
 41
1.0
 50
0.0
 71
     0
 42
0.2
  3
monotxt
  4

  0
ENDTAB
  0
TABLE
  2
VIEW
  5
6
330
0
100
AcDbSymbolTable
 70
     0
  0
ENDTAB
  0
TABLE
  2
UCS
  5
7
330
0
100
AcDbSymbolTable
 70
     0
  0
ENDTAB
  0
TABLE
  2
APPID
  5
9
330
0
100
AcDbSymbolTable
 70
     1
  0
APPID
  5
12
330
9
100
AcDbSymbolTableRecord
100
AcDbRegAppTableRecord
  2
ACAD
 70
     0
  0
ENDTAB
  0
TABLE
  2
DIMSTYLE
  5
A
330
0
100
AcDbSymbolTable
 70
     1
  0
DIMSTYLE
105
287C
330
A
100
AcDbSymbolTableRecord
100
AcDbDimStyleTableRecord
  2
STANDARD
 70
     0
  3

  4

  5

  6

  7

 40
1.0
 41
0.18
 42
0.0625
 43
0.38
 44
0.18
 45
0.0
 46
0.0
 47
0.0
 48
0.0
140
0.18
141
0.09
142
0.0
143
25.4
144
1.0
145
0.0
146
1.0
147
0.09
 71
     0
 72
     0
 73
     1
 74
     1
 75
     0
 76
     0
 77
     0
 78
     0
170
     0
171
     2
172
     0
173
     0
174
     0
175
     0
176
     0
177
     0
178
     0
270
     2
271
     4
272
     4
273
     2
274
     2
340
11
275
     0
280
     0
281
     0
282
     0
283
     1
284
     0
285
     0
286
     0
287
     3
288
     0
  0
ENDTAB
  0
TABLE
  2
BLOCK_RECORD
  5
1
330
0
100
AcDbSymbolTable
 70
     0
  0
BLOCK_RECORD
  5
1E
102
{ACAD_XDICTIONARY
360
3ACF
102
}
330
1
100
AcDbSymbolTableRecord
100
AcDbBlockTableRecord
  2
*MODEL_SPACE
  0
BLOCK_RECORD
  5
1A
102
{ACAD_XDICTIONARY
360
3AD1
102
}
330
1
100
AcDbSymbolTableRecord
100
AcDbBlockTableRecord
  2
*PAPER_SPACE
  0
ENDTAB
  0
ENDSEC
  0
SECTION
  2
BLOCKS
  0
BLOCK
  5
13B
330
1E
100
AcDbEntity
  8
0
100
AcDbBlockBegin
  2
*MODEL_SPACE
 70
     0
 10
0.0
 20
0.0
 30
0.0
  3
*MODEL_SPACE
  1

  0
ENDBLK
  5
13C
330
1E
100
AcDbEntity
  8
0
100
AcDbBlockEnd
  0
BLOCK
  5
139
330
1A
100
AcDbEntity
 67
     1
  8
0
100
AcDbBlockBegin
  2
*PAPER_SPACE
 70
     0
 10
0.0
 20
0.0
 30
0.0
  3
*PAPER_SPACE
  1

  0
ENDBLK
  5
13A
330
1A
100
AcDbEntity
 67
     1
  8
0
100
AcDbBlockEnd
  0
ENDSEC
  0
SECTION
  2
ENTITIES
  0
LINE
  5
2306
330
1E
100
AcDbEntity
  8
3
100
AcDbLine
 10
3.617125984251968
 20
5.233267716535432
 30
0.0
 11
3.602362204724409
 21
5.233267716535432
 31
0.0
  0
LINE
  5
2307
330
1E
100
AcDbEntity
  8
3
100
AcDbLine
 10
3.602362204724409
 20
4.826771653543306
 30
0.0
 11
3.617125984251968
 21
4.826771653543306
 31
0.0
  0
LINE
  5
2308
330
1E
100
AcDbEntity
  8
3
100
AcDbLine
 10
3.332677165354331
 20
4.839566929133857
 30
0.0
 11
3.33759842519685
 21
4.839566929133857
 31
0.0
  0
LINE
  5
2309
330
1E
100
AcDbEntity
  8
3
100
AcDbLine
 10
3.33759842519685
 20
5.220472440944881
 30
0.0
 11
3.332677165354331
 21
5.220472440944881
 31
0.0
  0
LINE
  5
230A
330
1E
100
AcDbEntity
  8
3
100
AcDbLine
 10
3.332677165354331
 20
5.189960629921259
 30
0.0
 11
3.051181102362204
 21
5.189960629921259
 31
0.0
  0
LINE
  5
230B
330
1E
100
AcDbEntity
  8
3
100
AcDbLine
 10
3.051181102362204
 20
4.870078740157479
 30
0.0
 11
3.332677165354331
 21
4.870078740157479
 31
0.0
  0
LINE
  5
230C
330
1E
100
AcDbEntity
  8
3
100
AcDbLine
 10
3.59744094488189
 20
4.921259842519684
 30
0.0
 11
3.602362204724409
 21
4.921259842519684
 31
0.0
  0
LINE
  5
230D
330
1E
100
AcDbEntity
  8
3
100
AcDbLine
 10
3.602362204724409
 20
5.138779527559054
 30
0.0
 11
3.59744094488189
 21
5.138779527559054
 31
0.0
  0
LINE
  5
2316
330
1E
100
AcDbEntity
  8
3
100
AcDbLine
 10
3.622047244094488
 20
5.204724409448818
 30
0.0
 11
3.618110236220472
 21
5.189960629921259
 31
0.0
  0
LINE
  5
2330
330
1E
100
AcDbEntity
  8
7
100
AcDbLine
 10
3.581692913385826
 20
5.445866141732283
 30
0.0
 11
3.721456692913385
 21
5.446850393700787
 31
0.0
  0
LINE
  5
2331
330
1E
100
AcDbEntity
  8
7
100
AcDbLine
 10
3.354330708661417
 20
5.318897637795275
 30
0.0
 11
3.581692913385826
 21
5.445866141732283
 31
0.0
  0
LINE
  5
2332
330
1E
100
AcDbEntity
  8
7
100
AcDbLine
 10
3.33759842519685
 20
5.318897637795275
 30
0.0
 11
3.354330708661417
 21
5.318897637795275
 31
0.0
  0
LINE
  5
2338
330
1E
100
AcDbEntity
  8
7
100
AcDbLine
 10
3.803149606299212
 20
4.677165354330708
 30
0.0
 11
4.123031496062991
 21
4.68011811023622
 31
0.0
  0
LINE
  5
2339
330
1E
100
AcDbEntity
  8
7
100
AcDbLine
 10
3.803149606299212
 20
4.677165354330708
 30
0.0
 11
3.721456692913385
 21
4.676181102362204
 31
0.0
  0
LINE
  5
233A
330
1E
100
AcDbEntity
  8
7
100
AcDbLine
 10
3.721456692913385
 20
4.676181102362204
 30
0.0
 11
3.65748031496063
 21
4.676181102362204
 31
0.0
  0
LINE
  5
233B
330
1E
100
AcDbEntity
  8
7
100
AcDbLine
 10
3.721456692913385
 20
4.745078740157479
 30
0.0
 11
3.721456692913385
 21
4.676181102362204
 31
0.0
  0
LINE
  5
233C
330
1E
100
AcDbEntity
  8
7
100
AcDbLine
 10
3.546259842519684
 20
4.679133858267715
 30
0.0
 11
3.65748031496063
 21
4.631889763779526
 31
0.0
  0
LINE
  5
233D
330
1E
100
AcDbEntity
  8
7
100
AcDbLine
 10
3.65748031496063
 20
4.676181102362204
 30
0.0
 11
3.65748031496063
 21
4.631889763779526
 31
0.0
  0
LINE
  5
2343
330
1E
100
AcDbEntity
  8
7
100
AcDbLine
 10
4.123031496062991
 20
4.68011811023622
 30
0.0
 11
4.123031496062991
 21
4.742125984251968
 31
0.0
  0
LINE
  5
2344
330
1E
100
AcDbEntity
  8
7
100
AcDbLine
 10
3.803149606299212
 20
4.745078740157479
 30
0.0
 11
4.123031496062991
 21
4.742125984251968
 31
0.0
  0
LINE
  5
2356
330
1E
100
AcDbEntity
  8
7
100
AcDbLine
 10
3.43503937007874
 20
4.77755905511811
 30
0.0
 11
3.59744094488189
 21
4.780511811023621
 31
0.0
  0
LINE
  5
2357
330
1E
100
AcDbEntity
  8
7
100
AcDbLine
 10
3.59744094488189
 20
5.279527559055117
 30
0.0
 11
3.43503937007874
 21
5.282480314960629
 31
0.0
  0
LINE
  5
2358
330
1E
100
AcDbEntity
  8
7
100
AcDbLine
 10
3.803149606299212
 20
5.446850393700787
 30
0.0
 11
3.803149606299212
 21
5.376968503937007
 31
0.0
  0
LINE
  5
2359
330
1E
100
AcDbEntity
  8
7
100
AcDbLine
 10
3.721456692913385
 20
5.446850393700787
 30
0.0
 11
3.803149606299212
 21
5.446850393700787
 31
0.0
  0
LINE
  5
235F
330
1E
100
AcDbEntity
  8
7
100
AcDbLine
 10
3.755905511811023
 20
5.377952755905511
 30
0.0
 11
3.803149606299212
 21
5.376968503937007
 31
0.0
  0
LINE
  5
2365
330
1E
100
AcDbEntity
  8
7
100
AcDbLine
 10
3.803149606299212
 20
5.446850393700787
 30
0.0
 11
4.123031496062991
 21
5.443897637795275
 31
0.0
  0
LINE
  5
2366
330
1E
100
AcDbEntity
  8
7
100
AcDbLine
 10
3.65748031496063
 20
5.44783464566929
 30
0.0
 11
3.721456692913385
 21
5.446850393700787
 31
0.0
  0
LINE
  5
2372
330
1E
100
AcDbEntity
  8
3
100
AcDbLine
 10
3.737204724409448
 20
5.13779527559055
 30
0.0
 11
3.737204724409448
 21
5.246062992125984
 31
0.0
  0
LINE
  5
2373
330
1E
100
AcDbEntity
  8
3
100
AcDbLine
 10
3.737204724409448
 20
4.922244094488188
 30
0.0
 11
3.737204724409448
 21
5.13779527559055
 31
0.0
  0
LINE
  5
2374
330
1E
100
AcDbEntity
  8
3
100
AcDbLine
 10
3.737204724409448
 20
4.813976377952755
 30
0.0
 11
3.737204724409448
 21
4.922244094488188
 31
0.0
  0
LINE
  5
2375
330
1E
100
AcDbEntity
  8
3
100
AcDbLine
 10
3.677165354330708
 20
5.246062992125984
 30
0.0
 11
3.737204724409448
 21
5.246062992125984
 31
0.0
  0
LINE
  5
2376
330
1E
100
AcDbEntity
  8
3
100
AcDbLine
 10
3.677165354330708
 20
4.813976377952755
 30
0.0
 11
3.737204724409448
 21
4.813976377952755
 31
0.0
  0
LINE
  5
2377
330
1E
100
AcDbEntity
  8
3
100
AcDbLine
 10
3.677165354330708
 20
4.922244094488188
 30
0.0
 11
3.737204724409448
 21
4.922244094488188
 31
0.0
  0
LINE
  5
2378
330
1E
100
AcDbEntity
  8
3
100
AcDbLine
 10
3.677165354330708
 20
5.13779527559055
 30
0.0
 11
3.737204724409448
 21
5.13779527559055
 31
0.0
  0
LINE
  5
23C2
330
1E
100
AcDbEntity
  8
3
100
AcDbLine
 10
3.602362204724409
 20
4.921259842519684
 30
0.0
 11
3.617125984251968
 21
4.921259842519684
 31
0.0
  0
LINE
  5
23C3
330
1E
100
AcDbEntity
  8
3
100
AcDbLine
 10
3.602362204724409
 20
5.138779527559054
 30
0.0
 11
3.617125984251968
 21
5.138779527559054
 31
0.0
  0
LINE
  5
23FF
330
1E
100
AcDbEntity
  8
7
100
AcDbLine
 10
1.334645669291338
 20
5.368110236220472
 30
0.0
 11
1.334645669291338
 21
5.367125984251968
 31
0.0
  0
LINE
  5
2400
330
1E
100
AcDbEntity
  8
7
100
AcDbLine
 10
1.334645669291338
 20
5.368110236220472
 30
0.0
 11
1.333661417322834
 21
5.401574803149605
 31
0.0
  0
LINE
  5
2401
330
1E
100
AcDbEntity
  8
7
100
AcDbLine
 10
1.333661417322834
 20
5.437007874015747
 30
0.0
 11
1.333661417322834
 21
5.401574803149605
 31
0.0
  0
LINE
  5
2402
330
1E
100
AcDbEntity
  8
7
100
AcDbLine
 10
1.332677165354331
 20
5.436023622047243
 30
0.0
 11
1.333661417322834
 21
5.437007874015747
 31
0.0
  0
LINE
  5
2403
330
1E
100
AcDbEntity
  8
7
100
AcDbLine
 10
1.330708661417323
 20
5.309055118110236
 30
0.0
 11
1.332677165354331
 21
5.436023622047243
 31
0.0
  0
LINE
  5
2409
330
1E
100
AcDbEntity
  8
7
100
AcDbLine
 10
1.333661417322834
 20
4.73523622047244
 30
0.0
 11
1.333661417322834
 21
4.666338582677164
 31
0.0
  0
LINE
  5
240A
330
1E
100
AcDbEntity
  8
7
100
AcDbLine
 10
1.334645669291338
 20
4.73523622047244
 30
0.0
 11
1.333661417322834
 21
4.73523622047244
 31
0.0
  0
LINE
  5
2411
330
1E
100
AcDbEntity
  8
7
100
AcDbLine
 10
0.7578740157480316
 20
5.401574803149605
 30
0.0
 11
0.7578740157480316
 21
5.437007874015747
 31
0.0
  0
LINE
  5
2417
330
1E
100
AcDbEntity
  8
7
100
AcDbLine
 10
0.7588582677165356
 20
5.366141732283463
 30
0.0
 11
0.7568897637795277
 21
5.367125984251968
 31
0.0
  0
LINE
  5
2420
330
1E
100
AcDbEntity
  8
7
100
AcDbLine
 10
0.7578740157480316
 20
4.666338582677164
 30
0.0
 11
0.7578740157480316
 21
4.73523622047244
 31
0.0
  0
LINE
  5
2421
330
1E
100
AcDbEntity
  8
7
100
AcDbLine
 10
0.7608267716535435
 20
4.673228346456692
 30
0.0
 11
0.7578740157480316
 21
4.666338582677164
 31
0.0
  0
LINE
  5
2422
330
1E
100
AcDbEntity
  8
7
100
AcDbLine
 10
0.7608267716535435
 20
5.309055118110236
 30
0.0
 11
1.330708661417323
 21
5.309055118110236
 31
0.0
  0
LINE
  5
2423
330
1E
100
AcDbEntity
  8
7
100
AcDbLine
 10
1.330708661417323
 20
4.673228346456692
 30
0.0
 11
0.7608267716535435
 21
4.673228346456692
 31
0.0
  0
LINE
  5
2456
330
1E
100
AcDbEntity
  8
7
100
AcDbLine
 10
1.293307086614173
 20
4.666338582677164
 30
0.0
 11
1.333661417322834
 21
4.666338582677164
 31
0.0
  0
LINE
  5
2457
330
1E
100
AcDbEntity
  8
7
100
AcDbLine
 10
1.293307086614173
 20
4.666338582677164
 30
0.0
 11
1.291338582677165
 21
4.665354330708661
 31
0.0
  0
LINE
  5
2458
330
1E
100
AcDbEntity
  8
7
100
AcDbLine
 10
0.8011811023622048
 20
4.665354330708661
 30
0.0
 11
0.798228346456693
 21
4.666338582677164
 31
0.0
  0
LINE
  5
2459
330
1E
100
AcDbEntity
  8
7
100
AcDbLine
 10
0.7578740157480316
 20
4.666338582677164
 30
0.0
 11
0.798228346456693
 21
4.666338582677164
 31
0.0
  0
LINE
  5
245A
330
1E
100
AcDbEntity
  8
7
100
AcDbLine
 10
0.7578740157480316
 20
4.666338582677164
 30
0.0
 11
0.7253937007874015
 21
4.666338582677164
 31
0.0
  0
LINE
  5
245B
330
1E
100
AcDbEntity
  8
7
100
AcDbLine
 10
0.7244094488188976
 20
4.667322834645668
 30
0.0
 11
0.7253937007874015
 21
4.666338582677164
 31
0.0
  0
LINE
  5
245C
330
1E
100
AcDbEntity
  8
7
100
AcDbLine
 10
0.7253937007874015
 20
4.73523622047244
 30
0.0
 11
0.7578740157480316
 21
4.73523622047244
 31
0.0
  0
LINE
  5
2462
330
1E
100
AcDbEntity
  8
7
100
AcDbLine
 10
0.7568897637795277
 20
4.73523622047244
 30
0.0
 11
0.7244094488188976
 21
4.73523622047244
 31
0.0
  0
LINE
  5
2463
330
1E
100
AcDbEntity
  8
7
100
AcDbLine
 10
1.366141732283464
 20
4.73523622047244
 30
0.0
 11
1.366141732283464
 21
4.666338582677164
 31
0.0
  0
LINE
  5
2464
330
1E
100
AcDbEntity
  8
7
100
AcDbLine
 10
1.333661417322834
 20
4.73523622047244
 30
0.0
 11
1.366141732283464
 21
4.73523622047244
 31
0.0
  0
LINE
  5
2465
330
1E
100
AcDbEntity
  8
7
100
AcDbLine
 10
0.798228346456693
 20
4.666338582677164
 30
0.0
 11
0.8041338582677164
 21
4.669291338582676
 31
0.0
  0
LINE
  5
2466
330
1E
100
AcDbEntity
  8
7
100
AcDbLine
 10
1.287401574803149
 20
4.669291338582676
 30
0.0
 11
0.8041338582677164
 21
4.669291338582676
 31
0.0
  0
LINE
  5
2467
330
1E
100
AcDbEntity
  8
7
100
AcDbLine
 10
1.293307086614173
 20
4.666338582677164
 30
0.0
 11
1.287401574803149
 21
4.669291338582676
 31
0.0
  0
LINE
  5
2468
330
1E
100
AcDbEntity
  8
7
100
AcDbLine
 10
0.8011811023622048
 20
4.665354330708661
 30
0.0
 11
0.8011811023622048
 21
4.622047244094487
 31
0.0
  0
LINE
  5
246E
330
1E
100
AcDbEntity
  8
7
100
AcDbLine
 10
1.287401574803149
 20
4.669291338582676
 30
0.0
 11
1.291338582677165
 21
4.622047244094487
 31
0.0
  0
LINE
  5
246F
330
1E
100
AcDbEntity
  8
7
100
AcDbLine
 10
1.291338582677165
 20
4.665354330708661
 30
0.0
 11
1.291338582677165
 21
4.622047244094487
 31
0.0
  0
LINE
  5
2470
330
1E
100
AcDbEntity
  8
7
100
AcDbLine
 10
1.367125984251968
 20
4.73523622047244
 30
0.0
 11
1.334645669291338
 21
4.73523622047244
 31
0.0
  0
LINE
  5
2471
330
1E
100
AcDbEntity
  8
7
100
AcDbLine
 10
1.366141732283464
 20
4.73523622047244
 30
0.0
 11
1.367125984251968
 21
4.73523622047244
 31
0.0
  0
LINE
  5
2472
330
1E
100
AcDbEntity
  8
7
100
AcDbLine
 10
0.7244094488188976
 20
4.73523622047244
 30
0.0
 11
0.7244094488188976
 21
4.667322834645668
 31
0.0
  0
LINE
  5
2473
330
1E
100
AcDbEntity
  8
7
100
AcDbLine
 10
1.367125984251968
 20
4.73523622047244
 30
0.0
 11
1.367125984251968
 21
4.667322834645668
 31
0.0
  0
LINE
  5
249D
330
1E
100
AcDbEntity
  8
7
100
AcDbLine
 10
1.367125984251968
 20
5.436023622047243
 30
0.0
 11
1.367125984251968
 21
5.367125984251968
 31
0.0
  0
LINE
  5
249E
330
1E
100
AcDbEntity
  8
7
100
AcDbLine
 10
1.366141732283464
 20
5.437007874015747
 30
0.0
 11
1.367125984251968
 21
5.436023622047243
 31
0.0
  0
LINE
  5
24A5
330
1E
100
AcDbEntity
  8
7
100
AcDbLine
 10
1.367125984251968
 20
5.367125984251968
 30
0.0
 11
1.334645669291338
 21
5.367125984251968
 31
0.0
  0
LINE
  5
24A6
330
1E
100
AcDbEntity
  8
7
100
AcDbLine
 10
0.7244094488188976
 20
5.436023622047243
 30
0.0
 11
0.7244094488188976
 21
5.367125984251968
 31
0.0
  0
LINE
  5
24A7
330
1E
100
AcDbEntity
  8
7
100
AcDbLine
 10
0.7568897637795277
 20
5.367125984251968
 30
0.0
 11
0.7244094488188976
 21
5.367125984251968
 31
0.0
  0
LINE
  5
24A8
330
1E
100
AcDbEntity
  8
7
100
AcDbLine
 10
0.7253937007874015
 20
5.368110236220472
 30
0.0
 11
0.7244094488188976
 21
5.367125984251968
 31
0.0
  0
LINE
  5
24B3
330
1E
100
AcDbEntity
  8
7
100
AcDbLine
 10
0.798228346456693
 20
5.437007874015747
 30
0.0
 11
0.7578740157480316
 21
5.437007874015747
 31
0.0
  0
LINE
  5
24B4
330
1E
100
AcDbEntity
  8
7
100
AcDbLine
 10
0.8011811023622048
 20
5.437992125984251
 30
0.0
 11
0.798228346456693
 21
5.437007874015747
 31
0.0
  0
LINE
  5
24B5
330
1E
100
AcDbEntity
  8
7
100
AcDbLine
 10
1.291338582677165
 20
5.437992125984251
 30
0.0
 11
1.293307086614173
 21
5.437007874015747
 31
0.0
  0
LINE
  5
24B6
330
1E
100
AcDbEntity
  8
7
100
AcDbLine
 10
1.333661417322834
 20
5.437007874015747
 30
0.0
 11
1.293307086614173
 21
5.437007874015747
 31
0.0
  0
LINE
  5
24B7
330
1E
100
AcDbEntity
  8
7
100
AcDbLine
 10
1.366141732283464
 20
5.437007874015747
 30
0.0
 11
1.333661417322834
 21
5.437007874015747
 31
0.0
  0
LINE
  5
24B8
330
1E
100
AcDbEntity
  8
7
100
AcDbLine
 10
0.8031496062992125
 20
5.436023622047243
 30
0.0
 11
0.798228346456693
 21
5.437007874015747
 31
0.0
  0
LINE
  5
24B9
330
1E
100
AcDbEntity
  8
7
100
AcDbLine
 10
0.8011811023622048
 20
5.478346456692912
 30
0.0
 11
0.8031496062992125
 21
5.436023622047243
 31
0.0
  0
LINE
  5
24BA
330
1E
100
AcDbEntity
  8
7
100
AcDbLine
 10
0.8011811023622048
 20
5.437992125984251
 30
0.0
 11
0.8011811023622048
 21
5.478346456692912
 31
0.0
  0
LINE
  5
24BB
330
1E
100
AcDbEntity
  8
7
100
AcDbLine
 10
1.291338582677165
 20
5.437992125984251
 30
0.0
 11
1.291338582677165
 21
5.478346456692912
 31
0.0
  0
LINE
  5
24C2
330
1E
100
AcDbEntity
  8
7
100
AcDbLine
 10
1.288385826771653
 20
5.436023622047243
 30
0.0
 11
1.332677165354331
 21
5.436023622047243
 31
0.0
  0
LINE
  5
24C3
330
1E
100
AcDbEntity
  8
7
100
AcDbLine
 10
1.366141732283464
 20
5.401574803149605
 30
0.0
 11
1.333661417322834
 21
5.401574803149605
 31
0.0
  0
LINE
  5
24C4
330
1E
100
AcDbEntity
  8
7
100
AcDbLine
 10
1.366141732283464
 20
5.368110236220472
 30
0.0
 11
1.334645669291338
 21
5.368110236220472
 31
0.0
  0
LINE
  5
24C5
330
1E
100
AcDbEntity
  8
7
100
AcDbLine
 10
0.7568897637795277
 20
5.368110236220472
 30
0.0
 11
0.7253937007874015
 21
5.368110236220472
 31
0.0
  0
LINE
  5
24C6
330
1E
100
AcDbEntity
  8
7
100
AcDbLine
 10
0.7578740157480316
 20
5.401574803149605
 30
0.0
 11
0.7253937007874015
 21
5.401574803149605
 31
0.0
  0
LINE
  5
24C7
330
1E
100
AcDbEntity
  8
7
100
AcDbLine
 10
0.7588582677165356
 20
5.436023622047243
 30
0.0
 11
0.8031496062992125
 21
5.436023622047243
 31
0.0
  0
LINE
  5
24C8
330
1E
100
AcDbEntity
  8
3
100
AcDbLine
 10
1.388779527559055
 20
4.911417322834645
 30
0.0
 11
1.331692913385826
 21
4.911417322834645
 31
0.0
  0
LINE
  5
24C9
330
1E
100
AcDbEntity
  8
3
100
AcDbLine
 10
1.388779527559055
 20
4.911417322834645
 30
0.0
 11
1.419291338582677
 21
4.915354330708661
 31
0.0
  0
LINE
  5
24D7
330
1E
100
AcDbEntity
  8
3
100
AcDbLine
 10
1.388779527559055
 20
5.128937007874015
 30
0.0
 11
1.331692913385826
 21
5.128937007874015
 31
0.0
  0
LINE
  5
24E9
330
1E
100
AcDbEntity
  8
3
100
AcDbLine
 10
1.37007874015748
 20
4.977362204724409
 30
0.0
 11
1.388779527559055
 21
4.973425196850393
 31
0.0
  0
LINE
  5
2A89
330
1E
100
AcDbEntity
  8
3
100
AcDbLine
 10
1.15748031496063
 20
5.173228346456692
 30
0.0
 11
1.124015748031495
 21
5.192913385826771
 31
0.0
  0
LINE
  5
2A8A
330
1E
100
AcDbEntity
  8
3
100
AcDbLine
 10
1.124015748031495
 20
5.192913385826771
 30
0.0
 11
1.085629921259842
 21
5.205708661417322
 31
0.0
  0
LINE
  5
2A8B
330
1E
100
AcDbEntity
  8
3
100
AcDbLine
 10
1.085629921259842
 20
5.205708661417322
 30
0.0
 11
1.046259842519685
 21
5.209645669291337
 31
0.0
  0
LINE
  5
2A8C
330
1E
100
AcDbEntity
  8
3
100
AcDbLine
 10
0.9350393700787401
 20
4.866141732283463
 30
0.0
 11
0.9685039370078738
 21
4.846456692913385
 31
0.0
  0
LINE
  5
2A8D
330
1E
100
AcDbEntity
  8
3
100
AcDbLine
 10
0.9685039370078738
 20
4.846456692913385
 30
0.0
 11
1.006889763779527
 21
4.833661417322834
 31
0.0
  0
LINE
  5
2A8E
330
1E
100
AcDbEntity
  8
3
100
AcDbLine
 10
1.006889763779527
 20
4.833661417322834
 30
0.0
 11
1.046259842519685
 21
4.829724409448818
 31
0.0
  0
LINE
  5
2A8F
330
1E
100
AcDbEntity
  8
3
100
AcDbLine
 10
1.046259842519685
 20
4.829724409448818
 30
0.0
 11
1.085629921259842
 21
4.833661417322834
 31
0.0
  0
LINE
  5
2A90
330
1E
100
AcDbEntity
  8
3
100
AcDbLine
 10
1.085629921259842
 20
4.833661417322834
 30
0.0
 11
1.124015748031495
 21
4.846456692913385
 31
0.0
  0
LINE
  5
2A91
330
1E
100
AcDbEntity
  8
3
100
AcDbLine
 10
1.124015748031495
 20
4.846456692913385
 30
0.0
 11
1.15748031496063
 21
4.866141732283463
 31
0.0
  0
LINE
  5
2A92
330
1E
100
AcDbEntity
  8
3
100
AcDbLine
 10
1.15748031496063
 20
4.866141732283463
 30
0.0
 11
1.187007874015748
 21
4.89271653543307
 31
0.0
  0
LINE
  5
2A93
330
1E
100
AcDbEntity
  8
3
100
AcDbLine
 10
1.187007874015748
 20
4.89271653543307
 30
0.0
 11
1.210629921259842
 21
4.924212598425196
 31
0.0
  0
LINE
  5
2A94
330
1E
100
AcDbEntity
  8
3
100
AcDbLine
 10
1.210629921259842
 20
4.924212598425196
 30
0.0
 11
1.227362204724409
 21
4.960629921259841
 31
0.0
  0
LINE
  5
2A95
330
1E
100
AcDbEntity
  8
3
100
AcDbLine
 10
1.227362204724409
 20
4.960629921259841
 30
0.0
 11
1.235236220472441
 21
5.0
 31
0.0
  0
LINE
  5
2A96
330
1E
100
AcDbEntity
  8
3
100
AcDbLine
 10
1.235236220472441
 20
5.0
 30
0.0
 11
1.235236220472441
 21
5.039370078740157
 31
0.0
  0
LINE
  5
2A97
330
1E
100
AcDbEntity
  8
3
100
AcDbLine
 10
1.235236220472441
 20
5.039370078740157
 30
0.0
 11
1.227362204724409
 21
5.078740157480314
 31
0.0
  0
LINE
  5
2A98
330
1E
100
AcDbEntity
  8
3
100
AcDbLine
 10
1.227362204724409
 20
5.078740157480314
 30
0.0
 11
1.210629921259842
 21
5.114173228346456
 31
0.0
  0
LINE
  5
2A99
330
1E
100
AcDbEntity
  8
3
100
AcDbLine
 10
1.210629921259842
 20
5.114173228346456
 30
0.0
 11
1.187007874015748
 21
5.146653543307086
 31
0.0
  0
LINE
  5
2A9A
330
1E
100
AcDbEntity
  8
3
100
AcDbLine
 10
1.187007874015748
 20
5.146653543307086
 30
0.0
 11
1.15748031496063
 21
5.173228346456692
 31
0.0
  0
LINE
  5
2A9B
330
1E
100
AcDbEntity
  8
3
100
AcDbLine
 10
1.046259842519685
 20
5.209645669291337
 30
0.0
 11
1.006889763779527
 21
5.205708661417322
 31
0.0
  0
LINE
  5
2A9C
330
1E
100
AcDbEntity
  8
3
100
AcDbLine
 10
1.006889763779527
 20
5.205708661417322
 30
0.0
 11
0.9685039370078738
 21
5.192913385826771
 31
0.0
  0
LINE
  5
2A9D
330
1E
100
AcDbEntity
  8
3
100
AcDbLine
 10
0.9685039370078738
 20
5.192913385826771
 30
0.0
 11
0.9350393700787401
 21
5.173228346456692
 31
0.0
  0
LINE
  5
2A9E
330
1E
100
AcDbEntity
  8
3
100
AcDbLine
 10
0.9350393700787401
 20
5.173228346456692
 30
0.0
 11
0.905511811023622
 21
5.146653543307086
 31
0.0
  0
LINE
  5
2A9F
330
1E
100
AcDbEntity
  8
3
100
AcDbLine
 10
0.905511811023622
 20
5.146653543307086
 30
0.0
 11
0.8818897637795275
 21
5.11515748031496
 31
0.0
  0
LINE
  5
2AA0
330
1E
100
AcDbEntity
  8
3
100
AcDbLine
 10
0.8818897637795275
 20
5.11515748031496
 30
0.0
 11
0.8651574803149605
 21
5.078740157480314
 31
0.0
  0
LINE
  5
2AA1
330
1E
100
AcDbEntity
  8
3
100
AcDbLine
 10
0.8651574803149605
 20
5.078740157480314
 30
0.0
 11
0.857283464566929
 21
5.039370078740157
 31
0.0
  0
LINE
  5
2AA2
330
1E
100
AcDbEntity
  8
3
100
AcDbLine
 10
0.857283464566929
 20
5.039370078740157
 30
0.0
 11
0.857283464566929
 21
5.0
 31
0.0
  0
LINE
  5
2AA3
330
1E
100
AcDbEntity
  8
3
100
AcDbLine
 10
0.857283464566929
 20
5.0
 30
0.0
 11
0.8651574803149605
 21
4.960629921259841
 31
0.0
  0
LINE
  5
2AA4
330
1E
100
AcDbEntity
  8
3
100
AcDbLine
 10
0.8651574803149605
 20
4.960629921259841
 30
0.0
 11
0.8818897637795275
 21
4.9251968503937
 31
0.0
  0
LINE
  5
2AA5
330
1E
100
AcDbEntity
  8
3
100
AcDbLine
 10
0.8818897637795275
 20
4.9251968503937
 30
0.0
 11
0.905511811023622
 21
4.89271653543307
 31
0.0
  0
LINE
  5
2AA6
330
1E
100
AcDbEntity
  8
3
100
AcDbLine
 10
0.905511811023622
 20
4.89271653543307
 30
0.0
 11
0.9350393700787401
 21
4.866141732283463
 31
0.0
  0
LINE
  5
2AA7
330
1E
100
AcDbEntity
  8
3
100
AcDbLine
 10
0.9616141732283464
 20
4.971456692913385
 30
0.0
 11
0.9803149606299211
 21
4.94783464566929
 31
0.0
  0
LINE
  5
2AA8
330
1E
100
AcDbEntity
  8
3
100
AcDbLine
 10
0.9803149606299211
 20
4.94783464566929
 30
0.0
 11
1.003937007874015
 21
4.932086614173227
 31
0.0
  0
LINE
  5
2AA9
330
1E
100
AcDbEntity
  8
3
100
AcDbLine
 10
1.003937007874015
 20
4.932086614173227
 30
0.0
 11
1.031496062992125
 21
4.923228346456692
 31
0.0
  0
LINE
  5
2AAA
330
1E
100
AcDbEntity
  8
3
100
AcDbLine
 10
1.031496062992125
 20
4.923228346456692
 30
0.0
 11
1.061023622047243
 21
4.923228346456692
 31
0.0
  0
LINE
  5
2AAB
330
1E
100
AcDbEntity
  8
3
100
AcDbLine
 10
1.061023622047243
 20
4.923228346456692
 30
0.0
 11
1.088582677165354
 21
4.932086614173227
 31
0.0
  0
LINE
  5
2AAC
330
1E
100
AcDbEntity
  8
3
100
AcDbLine
 10
1.088582677165354
 20
4.932086614173227
 30
0.0
 11
1.112204724409448
 21
4.94783464566929
 31
0.0
  0
LINE
  5
2AAD
330
1E
100
AcDbEntity
  8
3
100
AcDbLine
 10
1.112204724409448
 20
4.94783464566929
 30
0.0
 11
1.130905511811023
 21
4.970472440944881
 31
0.0
  0
LINE
  5
2AAE
330
1E
100
AcDbEntity
  8
3
100
AcDbLine
 10
1.130905511811023
 20
4.970472440944881
 30
0.0
 11
1.141732283464567
 21
4.998031496062991
 31
0.0
  0
LINE
  5
2AAF
330
1E
100
AcDbEntity
  8
3
100
AcDbLine
 10
1.141732283464567
 20
4.998031496062991
 30
0.0
 11
1.143700787401574
 21
5.026574803149605
 31
0.0
  0
LINE
  5
2AB0
330
1E
100
AcDbEntity
  8
3
100
AcDbLine
 10
1.143700787401574
 20
5.026574803149605
 30
0.0
 11
1.136811023622047
 21
5.05511811023622
 31
0.0
  0
LINE
  5
2AB1
330
1E
100
AcDbEntity
  8
3
100
AcDbLine
 10
1.136811023622047
 20
5.05511811023622
 30
0.0
 11
1.122047244094487
 21
5.080708661417322
 31
0.0
  0
LINE
  5
2AB2
330
1E
100
AcDbEntity
  8
3
100
AcDbLine
 10
1.122047244094487
 20
5.080708661417322
 30
0.0
 11
1.101377952755905
 21
5.1003937007874
 31
0.0
  0
LINE
  5
2AB3
330
1E
100
AcDbEntity
  8
3
100
AcDbLine
 10
1.101377952755905
 20
5.1003937007874
 30
0.0
 11
1.074803149606299
 21
5.113188976377952
 31
0.0
  0
LINE
  5
2AB4
330
1E
100
AcDbEntity
  8
3
100
AcDbLine
 10
1.074803149606299
 20
5.113188976377952
 30
0.0
 11
1.046259842519685
 21
5.117125984251968
 31
0.0
  0
LINE
  5
2AB5
330
1E
100
AcDbEntity
  8
3
100
AcDbLine
 10
1.046259842519685
 20
5.117125984251968
 30
0.0
 11
1.01771653543307
 21
5.113188976377952
 31
0.0
  0
LINE
  5
2AB6
330
1E
100
AcDbEntity
  8
3
100
AcDbLine
 10
1.01771653543307
 20
5.113188976377952
 30
0.0
 11
0.9911417322834644
 21
5.1003937007874
 31
0.0
  0
LINE
  5
2AB7
330
1E
100
AcDbEntity
  8
3
100
AcDbLine
 10
0.9911417322834644
 20
5.1003937007874
 30
0.0
 11
0.9704724409448818
 21
5.080708661417322
 31
0.0
  0
LINE
  5
2AB8
330
1E
100
AcDbEntity
  8
3
100
AcDbLine
 10
0.9704724409448818
 20
5.080708661417322
 30
0.0
 11
0.9557086614173227
 21
5.05511811023622
 31
0.0
  0
LINE
  5
2AB9
330
1E
100
AcDbEntity
  8
3
100
AcDbLine
 10
0.9557086614173227
 20
5.05511811023622
 30
0.0
 11
0.9488188976377951
 21
5.026574803149605
 31
0.0
  0
LINE
  5
2ABA
330
1E
100
AcDbEntity
  8
3
100
AcDbLine
 10
0.9488188976377951
 20
5.026574803149605
 30
0.0
 11
0.9507874015748031
 21
4.998031496062991
 31
0.0
  0
LINE
  5
2ABB
330
1E
100
AcDbEntity
  8
3
100
AcDbLine
 10
0.9507874015748031
 20
4.998031496062991
 30
0.0
 11
0.9616141732283464
 21
4.971456692913385
 31
0.0
  0
LINE
  5
2ABC
330
1E
100
AcDbEntity
  8
3
100
AcDbLine
 10
0.921259842519685
 20
4.92027559055118
 30
0.0
 11
0.9468503937007874
 21
4.894685039370078
 31
0.0
  0
LINE
  5
2ABD
330
1E
100
AcDbEntity
  8
3
100
AcDbLine
 10
0.9468503937007874
 20
4.894685039370078
 30
0.0
 11
0.9773622047244094
 21
4.875984251968503
 31
0.0
  0
LINE
  5
2ABE
330
1E
100
AcDbEntity
  8
3
100
AcDbLine
 10
0.9773622047244094
 20
4.875984251968503
 30
0.0
 11
1.010826771653543
 21
4.864173228346456
 31
0.0
  0
LINE
  5
2ABF
330
1E
100
AcDbEntity
  8
3
100
AcDbLine
 10
1.010826771653543
 20
4.864173228346456
 30
0.0
 11
1.046259842519685
 21
4.86023622047244
 31
0.0
  0
LINE
  5
2AC0
330
1E
100
AcDbEntity
  8
3
100
AcDbLine
 10
1.145669291338582
 20
5.144685039370078
 30
0.0
 11
1.11515748031496
 21
5.163385826771652
 31
0.0
  0
LINE
  5
2AC1
330
1E
100
AcDbEntity
  8
3
100
AcDbLine
 10
1.11515748031496
 20
5.163385826771652
 30
0.0
 11
1.081692913385826
 21
5.1751968503937
 31
0.0
  0
LINE
  5
2AC2
330
1E
100
AcDbEntity
  8
3
100
AcDbLine
 10
1.081692913385826
 20
5.1751968503937
 30
0.0
 11
1.046259842519685
 21
5.179133858267715
 31
0.0
  0
LINE
  5
2AC3
330
1E
100
AcDbEntity
  8
3
100
AcDbLine
 10
1.046259842519685
 20
5.179133858267715
 30
0.0
 11
1.010826771653543
 21
5.1751968503937
 31
0.0
  0
LINE
  5
2AC4
330
1E
100
AcDbEntity
  8
3
100
AcDbLine
 10
1.010826771653543
 20
5.1751968503937
 30
0.0
 11
0.9773622047244094
 21
5.163385826771652
 31
0.0
  0
LINE
  5
2AC5
330
1E
100
AcDbEntity
  8
3
100
AcDbLine
 10
0.9773622047244094
 20
5.163385826771652
 30
0.0
 11
0.9468503937007874
 21
5.144685039370078
 31
0.0
  0
LINE
  5
2AC6
330
1E
100
AcDbEntity
  8
3
100
AcDbLine
 10
0.9468503937007874
 20
5.144685039370078
 30
0.0
 11
0.921259842519685
 21
5.119094488188975
 31
0.0
  0
LINE
  5
2AC7
330
1E
100
AcDbEntity
  8
3
100
AcDbLine
 10
0.921259842519685
 20
5.119094488188975
 30
0.0
 11
0.9025590551181103
 21
5.088582677165353
 31
0.0
  0
LINE
  5
2AC8
330
1E
100
AcDbEntity
  8
3
100
AcDbLine
 10
0.9025590551181103
 20
5.088582677165353
 30
0.0
 11
0.8907480314960631
 21
5.05511811023622
 31
0.0
  0
LINE
  5
2AC9
330
1E
100
AcDbEntity
  8
3
100
AcDbLine
 10
0.8907480314960631
 20
5.05511811023622
 30
0.0
 11
0.8868110236220474
 21
5.019685039370078
 31
0.0
  0
LINE
  5
2ACA
330
1E
100
AcDbEntity
  8
3
100
AcDbLine
 10
0.8868110236220474
 20
5.019685039370078
 30
0.0
 11
0.8907480314960631
 21
4.984251968503937
 31
0.0
  0
LINE
  5
2ACB
330
1E
100
AcDbEntity
  8
3
100
AcDbLine
 10
0.8907480314960631
 20
4.984251968503937
 30
0.0
 11
0.9025590551181103
 21
4.950787401574802
 31
0.0
  0
LINE
  5
2ACC
330
1E
100
AcDbEntity
  8
3
100
AcDbLine
 10
0.9025590551181103
 20
4.950787401574802
 30
0.0
 11
0.921259842519685
 21
4.92027559055118
 31
0.0
  0
LINE
  5
2ACD
330
1E
100
AcDbEntity
  8
3
100
AcDbLine
 10
1.046259842519685
 20
4.86023622047244
 30
0.0
 11
1.081692913385826
 21
4.864173228346456
 31
0.0
  0
LINE
  5
2ACE
330
1E
100
AcDbEntity
  8
3
100
AcDbLine
 10
1.081692913385826
 20
4.864173228346456
 30
0.0
 11
1.11515748031496
 21
4.875984251968503
 31
0.0
  0
LINE
  5
2ACF
330
1E
100
AcDbEntity
  8
3
100
AcDbLine
 10
1.11515748031496
 20
4.875984251968503
 30
0.0
 11
1.145669291338582
 21
4.894685039370078
 31
0.0
  0
LINE
  5
2AD0
330
1E
100
AcDbEntity
  8
3
100
AcDbLine
 10
1.145669291338582
 20
4.894685039370078
 30
0.0
 11
1.171259842519685
 21
4.92027559055118
 31
0.0
  0
LINE
  5
2AD1
330
1E
100
AcDbEntity
  8
3
100
AcDbLine
 10
1.171259842519685
 20
4.92027559055118
 30
0.0
 11
1.189960629921259
 21
4.950787401574802
 31
0.0
  0
LINE
  5
2AD2
330
1E
100
AcDbEntity
  8
3
100
AcDbLine
 10
1.189960629921259
 20
4.950787401574802
 30
0.0
 11
1.201771653543307
 21
4.984251968503937
 31
0.0
  0
LINE
  5
2AD3
330
1E
100
AcDbEntity
  8
3
100
AcDbLine
 10
1.201771653543307
 20
4.984251968503937
 30
0.0
 11
1.205708661417323
 21
5.019685039370078
 31
0.0
  0
LINE
  5
2AD4
330
1E
100
AcDbEntity
  8
3
100
AcDbLine
 10
1.205708661417323
 20
5.019685039370078
 30
0.0
 11
1.201771653543307
 21
5.05511811023622
 31
0.0
  0
LINE
  5
2AD5
330
1E
100
AcDbEntity
  8
3
100
AcDbLine
 10
1.201771653543307
 20
5.05511811023622
 30
0.0
 11
1.189960629921259
 21
5.088582677165353
 31
0.0
  0
LINE
  5
2AD6
330
1E
100
AcDbEntity
  8
3
100
AcDbLine
 10
1.189960629921259
 20
5.088582677165353
 30
0.0
 11
1.171259842519685
 21
5.119094488188975
 31
0.0
  0
LINE
  5
2AD7
330
1E
100
AcDbEntity
  8
3
100
AcDbLine
 10
1.171259842519685
 20
5.119094488188975
 30
0.0
 11
1.145669291338582
 21
5.144685039370078
 31
0.0
  0
LINE
  5
2AD8
330
1E
100
AcDbEntity
  8
3
100
AcDbLine
 10
1.388779527559055
 20
4.973425196850393
 30
0.0
 11
1.40748031496063
 21
4.977362204724409
 31
0.0
  0
LINE
  5
2AD9
330
1E
100
AcDbEntity
  8
3
100
AcDbLine
 10
1.40748031496063
 20
4.977362204724409
 30
0.0
 11
1.423228346456693
 21
4.989173228346456
 31
0.0
  0
LINE
  5
2ADA
330
1E
100
AcDbEntity
  8
3
100
AcDbLine
 10
1.423228346456693
 20
4.989173228346456
 30
0.0
 11
1.433070866141732
 21
5.004921259842519
 31
0.0
  0
LINE
  5
2ADB
330
1E
100
AcDbEntity
  8
3
100
AcDbLine
 10
1.433070866141732
 20
5.004921259842519
 30
0.0
 11
1.43503937007874
 21
5.024606299212598
 31
0.0
  0
LINE
  5
2ADC
330
1E
100
AcDbEntity
  8
3
100
AcDbLine
 10
1.43503937007874
 20
5.024606299212598
 30
0.0
 11
1.429133858267716
 21
5.042322834645668
 31
0.0
  0
LINE
  5
2ADD
330
1E
100
AcDbEntity
  8
3
100
AcDbLine
 10
1.429133858267716
 20
5.042322834645668
 30
0.0
 11
1.416338582677165
 21
5.057086614173227
 31
0.0
  0
LINE
  5
2ADE
330
1E
100
AcDbEntity
  8
3
100
AcDbLine
 10
1.416338582677165
 20
5.057086614173227
 30
0.0
 11
1.398622047244094
 21
5.064960629921259
 31
0.0
  0
LINE
  5
2ADF
330
1E
100
AcDbEntity
  8
3
100
AcDbLine
 10
1.398622047244094
 20
5.064960629921259
 30
0.0
 11
1.378937007874015
 21
5.064960629921259
 31
0.0
  0
LINE
  5
2AE0
330
1E
100
AcDbEntity
  8
3
100
AcDbLine
 10
1.378937007874015
 20
5.064960629921259
 30
0.0
 11
1.361220472440944
 21
5.057086614173227
 31
0.0
  0
LINE
  5
2AE1
330
1E
100
AcDbEntity
  8
3
100
AcDbLine
 10
1.361220472440944
 20
5.057086614173227
 30
0.0
 11
1.348425196850393
 21
5.043307086614173
 31
0.0
  0
LINE
  5
2AE2
330
1E
100
AcDbEntity
  8
3
100
AcDbLine
 10
1.348425196850393
 20
5.043307086614173
 30
0.0
 11
1.34251968503937
 21
5.024606299212598
 31
0.0
  0
LINE
  5
2AE3
330
1E
100
AcDbEntity
  8
3
100
AcDbLine
 10
1.34251968503937
 20
5.024606299212598
 30
0.0
 11
1.344488188976378
 21
5.004921259842519
 31
0.0
  0
LINE
  5
2AE4
330
1E
100
AcDbEntity
  8
3
100
AcDbLine
 10
1.344488188976378
 20
5.004921259842519
 30
0.0
 11
1.354330708661417
 21
4.989173228346456
 31
0.0
  0
LINE
  5
2AE5
330
1E
100
AcDbEntity
  8
3
100
AcDbLine
 10
1.354330708661417
 20
4.989173228346456
 30
0.0
 11
1.37007874015748
 21
4.977362204724409
 31
0.0
  0
LINE
  5
2AE6
330
1E
100
AcDbEntity
  8
3
100
AcDbLine
 10
1.419291338582677
 20
4.915354330708661
 30
0.0
 11
1.446850393700787
 21
4.928149606299212
 31
0.0
  0
LINE
  5
2AE7
330
1E
100
AcDbEntity
  8
3
100
AcDbLine
 10
1.446850393700787
 20
4.928149606299212
 30
0.0
 11
1.470472440944881
 21
4.948818897637794
 31
0.0
  0
LINE
  5
2AE8
330
1E
100
AcDbEntity
  8
3
100
AcDbLine
 10
1.470472440944881
 20
4.948818897637794
 30
0.0
 11
1.487204724409449
 21
4.974409448818897
 31
0.0
  0
LINE
  5
2AE9
330
1E
100
AcDbEntity
  8
3
100
AcDbLine
 10
1.487204724409449
 20
4.974409448818897
 30
0.0
 11
1.496062992125984
 21
5.003937007874015
 31
0.0
  0
LINE
  5
2AEA
330
1E
100
AcDbEntity
  8
3
100
AcDbLine
 10
1.496062992125984
 20
5.003937007874015
 30
0.0
 11
1.496062992125984
 21
5.035433070866141
 31
0.0
  0
LINE
  5
2AEB
330
1E
100
AcDbEntity
  8
3
100
AcDbLine
 10
1.496062992125984
 20
5.035433070866141
 30
0.0
 11
1.487204724409449
 21
5.064960629921259
 31
0.0
  0
LINE
  5
2AEC
330
1E
100
AcDbEntity
  8
3
100
AcDbLine
 10
1.487204724409449
 20
5.064960629921259
 30
0.0
 11
1.470472440944881
 21
5.090551181102362
 31
0.0
  0
LINE
  5
2AED
330
1E
100
AcDbEntity
  8
3
100
AcDbLine
 10
1.470472440944881
 20
5.090551181102362
 30
0.0
 11
1.446850393700787
 21
5.111220472440944
 31
0.0
  0
LINE
  5
2AEE
330
1E
100
AcDbEntity
  8
3
100
AcDbLine
 10
1.446850393700787
 20
5.111220472440944
 30
0.0
 11
1.419291338582677
 21
5.124015748031495
 31
0.0
  0
LINE
  5
2AEF
330
1E
100
AcDbEntity
  8
3
100
AcDbLine
 10
1.419291338582677
 20
5.124015748031495
 30
0.0
 11
1.388779527559055
 21
5.127952755905511
 31
0.0
  0
LINE
  5
2AF0
330
1E
100
AcDbEntity
  8
7
100
AcDbLine
 10
0.8011811023622048
 20
5.478346456692912
 30
0.0
 11
1.291338582677165
 21
5.478346456692912
 31
0.0
  0
LINE
  5
2AF1
330
1E
100
AcDbEntity
  8
7
100
AcDbLine
 10
1.291338582677165
 20
5.478346456692912
 30
0.0
 11
1.288385826771653
 21
5.436023622047243
 31
0.0
  0
LINE
  5
2AF2
330
1E
100
AcDbEntity
  8
7
100
AcDbLine
 10
1.288385826771653
 20
5.436023622047243
 30
0.0
 11
1.293307086614173
 21
5.437007874015747
 31
0.0
  0
LINE
  5
2AF3
330
1E
100
AcDbEntity
  8
7
100
AcDbLine
 10
0.7244094488188976
 20
5.436023622047243
 30
0.0
 11
0.7253937007874015
 21
5.437007874015747
 31
0.0
  0
LINE
  5
2AF4
330
1E
100
AcDbEntity
  8
7
100
AcDbLine
 10
0.7253937007874015
 20
5.437007874015747
 30
0.0
 11
0.7578740157480316
 21
5.437007874015747
 31
0.0
  0
LINE
  5
2AF5
330
1E
100
AcDbEntity
  8
7
100
AcDbLine
 10
0.7253937007874015
 20
5.368110236220472
 30
0.0
 11
0.7253937007874015
 21
5.401574803149605
 31
0.0
  0
LINE
  5
2AF6
330
1E
100
AcDbEntity
  8
7
100
AcDbLine
 10
0.7253937007874015
 20
5.401574803149605
 30
0.0
 11
0.7253937007874015
 21
5.437007874015747
 31
0.0
  0
LINE
  5
2AF7
330
1E
100
AcDbEntity
  8
7
100
AcDbLine
 10
1.366141732283464
 20
5.437007874015747
 30
0.0
 11
1.366141732283464
 21
5.401574803149605
 31
0.0
  0
LINE
  5
2AF8
330
1E
100
AcDbEntity
  8
7
100
AcDbLine
 10
1.366141732283464
 20
5.401574803149605
 30
0.0
 11
1.366141732283464
 21
5.368110236220472
 31
0.0
  0
LINE
  5
2AF9
330
1E
100
AcDbEntity
  8
7
100
AcDbLine
 10
1.366141732283464
 20
5.368110236220472
 30
0.0
 11
1.367125984251968
 21
5.367125984251968
 31
0.0
  0
LINE
  5
2AFA
330
1E
100
AcDbEntity
  8
7
100
AcDbLine
 10
1.201771653543307
 20
4.864173228346456
 30
0.0
 11
1.228346456692913
 21
4.897637795275589
 31
0.0
  0
LINE
  5
2AFB
330
1E
100
AcDbEntity
  8
7
100
AcDbLine
 10
1.228346456692913
 20
4.897637795275589
 30
0.0
 11
1.249015748031496
 21
4.936023622047243
 31
0.0
  0
LINE
  5
2AFC
330
1E
100
AcDbEntity
  8
7
100
AcDbLine
 10
1.249015748031496
 20
4.936023622047243
 30
0.0
 11
1.261811023622047
 21
4.976377952755904
 31
0.0
  0
LINE
  5
2AFD
330
1E
100
AcDbEntity
  8
7
100
AcDbLine
 10
1.261811023622047
 20
4.976377952755904
 30
0.0
 11
1.265748031496062
 21
5.019685039370078
 31
0.0
  0
LINE
  5
2AFE
330
1E
100
AcDbEntity
  8
7
100
AcDbLine
 10
1.265748031496062
 20
5.019685039370078
 30
0.0
 11
1.261811023622047
 21
5.062992125984251
 31
0.0
  0
LINE
  5
2AFF
330
1E
100
AcDbEntity
  8
7
100
AcDbLine
 10
1.261811023622047
 20
5.062992125984251
 30
0.0
 11
1.249015748031496
 21
5.103346456692912
 31
0.0
  0
LINE
  5
2B00
330
1E
100
AcDbEntity
  8
7
100
AcDbLine
 10
1.249015748031496
 20
5.103346456692912
 30
0.0
 11
1.228346456692913
 21
5.141732283464566
 31
0.0
  0
LINE
  5
2B01
330
1E
100
AcDbEntity
  8
7
100
AcDbLine
 10
1.228346456692913
 20
5.141732283464566
 30
0.0
 11
1.201771653543307
 21
5.1751968503937
 31
0.0
  0
LINE
  5
2B02
330
1E
100
AcDbEntity
  8
7
100
AcDbLine
 10
1.201771653543307
 20
5.1751968503937
 30
0.0
 11
1.168307086614173
 21
5.201771653543306
 31
0.0
  0
LINE
  5
2B03
330
1E
100
AcDbEntity
  8
7
100
AcDbLine
 10
1.168307086614173
 20
5.201771653543306
 30
0.0
 11
1.129921259842519
 21
5.222440944881888
 31
0.0
  0
LINE
  5
2B04
330
1E
100
AcDbEntity
  8
7
100
AcDbLine
 10
1.129921259842519
 20
5.222440944881888
 30
0.0
 11
1.089566929133858
 21
5.23523622047244
 31
0.0
  0
LINE
  5
2B05
330
1E
100
AcDbEntity
  8
7
100
AcDbLine
 10
1.089566929133858
 20
5.23523622047244
 30
0.0
 11
1.046259842519685
 21
5.239173228346456
 31
0.0
  0
LINE
  5
2B06
330
1E
100
AcDbEntity
  8
7
100
AcDbLine
 10
0.8435039370078738
 20
5.103346456692912
 30
0.0
 11
0.8307086614173227
 21
5.062992125984251
 31
0.0
  0
LINE
  5
2B07
330
1E
100
AcDbEntity
  8
7
100
AcDbLine
 10
0.8307086614173227
 20
5.062992125984251
 30
0.0
 11
0.826771653543307
 21
5.019685039370078
 31
0.0
  0
LINE
  5
2B08
330
1E
100
AcDbEntity
  8
7
100
AcDbLine
 10
0.826771653543307
 20
5.019685039370078
 30
0.0
 11
0.8307086614173227
 21
4.976377952755904
 31
0.0
  0
LINE
  5
2B09
330
1E
100
AcDbEntity
  8
7
100
AcDbLine
 10
0.8307086614173227
 20
4.976377952755904
 30
0.0
 11
0.8435039370078738
 21
4.936023622047243
 31
0.0
  0
LINE
  5
2B0A
330
1E
100
AcDbEntity
  8
7
100
AcDbLine
 10
0.8435039370078738
 20
4.936023622047243
 30
0.0
 11
0.8641732283464566
 21
4.897637795275589
 31
0.0
  0
LINE
  5
2B0B
330
1E
100
AcDbEntity
  8
7
100
AcDbLine
 10
0.8641732283464566
 20
4.897637795275589
 30
0.0
 11
0.8907480314960631
 21
4.864173228346456
 31
0.0
  0
LINE
  5
2B0C
330
1E
100
AcDbEntity
  8
7
100
AcDbLine
 10
0.8907480314960631
 20
4.864173228346456
 30
0.0
 11
0.9242125984251968
 21
4.83759842519685
 31
0.0
  0
LINE
  5
2B0D
330
1E
100
AcDbEntity
  8
7
100
AcDbLine
 10
0.9242125984251968
 20
4.83759842519685
 30
0.0
 11
0.9625984251968503
 21
4.816929133858267
 31
0.0
  0
LINE
  5
2B0E
330
1E
100
AcDbEntity
  8
7
100
AcDbLine
 10
0.9625984251968503
 20
4.816929133858267
 30
0.0
 11
1.002952755905511
 21
4.804133858267715
 31
0.0
  0
LINE
  5
2B0F
330
1E
100
AcDbEntity
  8
7
100
AcDbLine
 10
1.002952755905511
 20
4.804133858267715
 30
0.0
 11
1.046259842519685
 21
4.8001968503937
 31
0.0
  0
LINE
  5
2B10
330
1E
100
AcDbEntity
  8
7
100
AcDbLine
 10
1.046259842519685
 20
4.8001968503937
 30
0.0
 11
1.089566929133858
 21
4.804133858267715
 31
0.0
  0
LINE
  5
2B11
330
1E
100
AcDbEntity
  8
7
100
AcDbLine
 10
1.089566929133858
 20
4.804133858267715
 30
0.0
 11
1.129921259842519
 21
4.816929133858267
 31
0.0
  0
LINE
  5
2B12
330
1E
100
AcDbEntity
  8
7
100
AcDbLine
 10
1.129921259842519
 20
4.816929133858267
 30
0.0
 11
1.168307086614173
 21
4.83759842519685
 31
0.0
  0
LINE
  5
2B13
330
1E
100
AcDbEntity
  8
7
100
AcDbLine
 10
1.168307086614173
 20
4.83759842519685
 30
0.0
 11
1.201771653543307
 21
4.864173228346456
 31
0.0
  0
LINE
  5
2B14
330
1E
100
AcDbEntity
  8
7
100
AcDbLine
 10
1.046259842519685
 20
5.239173228346456
 30
0.0
 11
1.002952755905511
 21
5.23523622047244
 31
0.0
  0
LINE
  5
2B15
330
1E
100
AcDbEntity
  8
7
100
AcDbLine
 10
1.002952755905511
 20
5.23523622047244
 30
0.0
 11
0.9625984251968503
 21
5.222440944881888
 31
0.0
  0
LINE
  5
2B16
330
1E
100
AcDbEntity
  8
7
100
AcDbLine
 10
0.9625984251968503
 20
5.222440944881888
 30
0.0
 11
0.9242125984251968
 21
5.201771653543306
 31
0.0
  0
LINE
  5
2B17
330
1E
100
AcDbEntity
  8
7
100
AcDbLine
 10
0.9242125984251968
 20
5.201771653543306
 30
0.0
 11
0.8907480314960631
 21
5.1751968503937
 31
0.0
  0
LINE
  5
2B18
330
1E
100
AcDbEntity
  8
7
100
AcDbLine
 10
0.8907480314960631
 20
5.1751968503937
 30
0.0
 11
0.8641732283464566
 21
5.141732283464566
 31
0.0
  0
LINE
  5
2B19
330
1E
100
AcDbEntity
  8
7
100
AcDbLine
 10
0.8641732283464566
 20
5.141732283464566
 30
0.0
 11
0.8435039370078738
 21
5.103346456692912
 31
0.0
  0
LINE
  5
2B1A
330
1E
100
AcDbEntity
  8
7
100
AcDbLine
 10
0.8041338582677164
 20
4.669291338582676
 30
0.0
 11
0.8011811023622048
 21
4.622047244094487
 31
0.0
  0
LINE
  5
2B1B
330
1E
100
AcDbEntity
  8
7
100
AcDbLine
 10
0.8011811023622048
 20
4.622047244094487
 30
0.0
 11
1.291338582677165
 21
4.622047244094487
 31
0.0
  0
LINE
  5
2B1C
330
1E
100
AcDbEntity
  8
7
100
AcDbLine
 10
0.7253937007874015
 20
4.666338582677164
 30
0.0
 11
0.7253937007874015
 21
4.73523622047244
 31
0.0
  0
LINE
  5
2B1D
330
1E
100
AcDbEntity
  8
7
100
AcDbLine
 10
0.7253937007874015
 20
4.73523622047244
 30
0.0
 11
0.7244094488188976
 21
4.73523622047244
 31
0.0
  0
LINE
  5
2B1E
330
1E
100
AcDbEntity
  8
7
100
AcDbLine
 10
1.367125984251968
 20
4.667322834645668
 30
0.0
 11
1.366141732283464
 21
4.666338582677164
 31
0.0
  0
LINE
  5
2B1F
330
1E
100
AcDbEntity
  8
7
100
AcDbLine
 10
1.366141732283464
 20
4.666338582677164
 30
0.0
 11
1.333661417322834
 21
4.666338582677164
 31
0.0
  0
LINE
  5
2B20
330
1E
100
AcDbEntity
  8
7
100
AcDbLine
 10
1.128937007874015
 20
5.226377952755904
 30
0.0
 11
1.088582677165354
 21
5.238188976377952
 31
0.0
  0
LINE
  5
2B21
330
1E
100
AcDbEntity
  8
7
100
AcDbLine
 10
1.088582677165354
 20
5.238188976377952
 30
0.0
 11
1.046259842519685
 21
5.242125984251968
 31
0.0
  0
LINE
  5
2B22
330
1E
100
AcDbEntity
  8
7
100
AcDbLine
 10
1.025590551181102
 20
4.798228346456692
 30
0.0
 11
1.066929133858267
 21
4.798228346456692
 31
0.0
  0
LINE
  5
2B23
330
1E
100
AcDbEntity
  8
7
100
AcDbLine
 10
1.066929133858267
 20
4.798228346456692
 30
0.0
 11
1.109251968503937
 21
4.806102362204724
 31
0.0
  0
LINE
  5
2B24
330
1E
100
AcDbEntity
  8
7
100
AcDbLine
 10
1.109251968503937
 20
4.806102362204724
 30
0.0
 11
1.148622047244094
 21
4.821850393700787
 31
0.0
  0
LINE
  5
2B25
330
1E
100
AcDbEntity
  8
7
100
AcDbLine
 10
1.148622047244094
 20
4.821850393700787
 30
0.0
 11
1.184055118110236
 21
4.844488188976377
 31
0.0
  0
LINE
  5
2B26
330
1E
100
AcDbEntity
  8
7
100
AcDbLine
 10
1.184055118110236
 20
4.844488188976377
 30
0.0
 11
1.214566929133858
 21
4.874015748031495
 31
0.0
  0
LINE
  5
2B27
330
1E
100
AcDbEntity
  8
7
100
AcDbLine
 10
1.214566929133858
 20
4.874015748031495
 30
0.0
 11
1.239173228346456
 21
4.908464566929133
 31
0.0
  0
LINE
  5
2B28
330
1E
100
AcDbEntity
  8
7
100
AcDbLine
 10
1.239173228346456
 20
4.908464566929133
 30
0.0
 11
1.256889763779527
 21
4.946850393700787
 31
0.0
  0
LINE
  5
2B29
330
1E
100
AcDbEntity
  8
7
100
AcDbLine
 10
1.256889763779527
 20
4.946850393700787
 30
0.0
 11
1.266732283464567
 21
4.988188976377952
 31
0.0
  0
LINE
  5
2B2A
330
1E
100
AcDbEntity
  8
7
100
AcDbLine
 10
1.266732283464567
 20
4.988188976377952
 30
0.0
 11
1.268700787401574
 21
5.030511811023621
 31
0.0
  0
LINE
  5
2B2B
330
1E
100
AcDbEntity
  8
7
100
AcDbLine
 10
1.268700787401574
 20
5.030511811023621
 30
0.0
 11
1.262795275590551
 21
5.071850393700787
 31
0.0
  0
LINE
  5
2B2C
330
1E
100
AcDbEntity
  8
7
100
AcDbLine
 10
1.262795275590551
 20
5.071850393700787
 30
0.0
 11
1.249015748031496
 21
5.112204724409448
 31
0.0
  0
LINE
  5
2B2D
330
1E
100
AcDbEntity
  8
7
100
AcDbLine
 10
1.249015748031496
 20
5.112204724409448
 30
0.0
 11
1.227362204724409
 21
5.148622047244094
 31
0.0
  0
LINE
  5
2B2E
330
1E
100
AcDbEntity
  8
7
100
AcDbLine
 10
1.227362204724409
 20
5.148622047244094
 30
0.0
 11
1.199803149606299
 21
5.181102362204724
 31
0.0
  0
LINE
  5
2B2F
330
1E
100
AcDbEntity
  8
7
100
AcDbLine
 10
1.199803149606299
 20
5.181102362204724
 30
0.0
 11
1.166338582677165
 21
5.206692913385825
 31
0.0
  0
LINE
  5
2B30
330
1E
100
AcDbEntity
  8
7
100
AcDbLine
 10
1.166338582677165
 20
5.206692913385825
 30
0.0
 11
1.128937007874015
 21
5.226377952755904
 31
0.0
  0
LINE
  5
2B31
330
1E
100
AcDbEntity
  8
7
100
AcDbLine
 10
0.9261811023622048
 20
5.206692913385825
 30
0.0
 11
0.8927165354330709
 21
5.181102362204724
 31
0.0
  0
LINE
  5
2B32
330
1E
100
AcDbEntity
  8
7
100
AcDbLine
 10
0.8927165354330709
 20
5.181102362204724
 30
0.0
 11
0.8651574803149605
 21
5.148622047244094
 31
0.0
  0
LINE
  5
2B33
330
1E
100
AcDbEntity
  8
7
100
AcDbLine
 10
0.8651574803149605
 20
5.148622047244094
 30
0.0
 11
0.8435039370078738
 21
5.112204724409448
 31
0.0
  0
LINE
  5
2B34
330
1E
100
AcDbEntity
  8
7
100
AcDbLine
 10
0.8435039370078738
 20
5.112204724409448
 30
0.0
 11
0.8297244094488188
 21
5.071850393700787
 31
0.0
  0
LINE
  5
2B35
330
1E
100
AcDbEntity
  8
7
100
AcDbLine
 10
0.8297244094488188
 20
5.071850393700787
 30
0.0
 11
0.8238188976377951
 21
5.030511811023621
 31
0.0
  0
LINE
  5
2B36
330
1E
100
AcDbEntity
  8
7
100
AcDbLine
 10
0.8238188976377951
 20
5.030511811023621
 30
0.0
 11
0.8257874015748031
 21
4.988188976377952
 31
0.0
  0
LINE
  5
2B37
330
1E
100
AcDbEntity
  8
7
100
AcDbLine
 10
0.8257874015748031
 20
4.988188976377952
 30
0.0
 11
0.8356299212598424
 21
4.946850393700787
 31
0.0
  0
LINE
  5
2B38
330
1E
100
AcDbEntity
  8
7
100
AcDbLine
 10
0.8356299212598424
 20
4.946850393700787
 30
0.0
 11
0.8533464566929133
 21
4.908464566929133
 31
0.0
  0
LINE
  5
2B39
330
1E
100
AcDbEntity
  8
7
100
AcDbLine
 10
0.8533464566929133
 20
4.908464566929133
 30
0.0
 11
0.8779527559055118
 21
4.874015748031495
 31
0.0
  0
LINE
  5
2B3A
330
1E
100
AcDbEntity
  8
7
100
AcDbLine
 10
0.8779527559055118
 20
4.874015748031495
 30
0.0
 11
0.9084645669291338
 21
4.844488188976377
 31
0.0
  0
LINE
  5
2B3B
330
1E
100
AcDbEntity
  8
7
100
AcDbLine
 10
0.9084645669291338
 20
4.844488188976377
 30
0.0
 11
0.9438976377952755
 21
4.821850393700787
 31
0.0
  0
LINE
  5
2B3C
330
1E
100
AcDbEntity
  8
7
100
AcDbLine
 10
0.9438976377952755
 20
4.821850393700787
 30
0.0
 11
0.9832677165354329
 21
4.806102362204724
 31
0.0
  0
LINE
  5
2B3D
330
1E
100
AcDbEntity
  8
7
100
AcDbLine
 10
0.9832677165354329
 20
4.806102362204724
 30
0.0
 11
1.025590551181102
 21
4.798228346456692
 31
0.0
  0
LINE
  5
2B3E
330
1E
100
AcDbEntity
  8
7
100
AcDbLine
 10
1.046259842519685
 20
5.242125984251968
 30
0.0
 11
1.003937007874015
 21
5.238188976377952
 31
0.0
  0
LINE
  5
2B3F
330
1E
100
AcDbEntity
  8
7
100
AcDbLine
 10
1.003937007874015
 20
5.238188976377952
 30
0.0
 11
0.9635826771653542
 21
5.226377952755904
 31
0.0
  0
LINE
  5
2B40
330
1E
100
AcDbEntity
  8
7
100
AcDbLine
 10
0.9635826771653542
 20
5.226377952755904
 30
0.0
 11
0.9261811023622048
 21
5.206692913385825
 31
0.0
  0
LINE
  5
2B41
330
1E
100
AcDbEntity
  8
7
100
AcDbLine
 10
0.7588582677165356
 20
5.366141732283463
 30
0.0
 11
0.7598425196850395
 21
5.283464566929133
 31
0.0
  0
LINE
  5
2B42
330
1E
100
AcDbEntity
  8
7
100
AcDbLine
 10
0.7598425196850395
 20
5.283464566929133
 30
0.0
 11
0.7598425196850395
 21
5.278543307086613
 31
0.0
  0
LINE
  5
2B43
330
1E
100
AcDbEntity
  8
7
100
AcDbLine
 10
0.7598425196850395
 20
5.278543307086613
 30
0.0
 11
0.7598425196850395
 21
4.738188976377952
 31
0.0
  0
LINE
  5
2B44
330
1E
100
AcDbEntity
  8
7
100
AcDbLine
 10
0.7598425196850395
 20
4.738188976377952
 30
0.0
 11
0.7568897637795277
 21
4.73523622047244
 31
0.0
  0
LINE
  5
2B45
330
1E
100
AcDbEntity
  8
7
100
AcDbLine
 10
0.7568897637795277
 20
4.73523622047244
 30
0.0
 11
0.7578740157480316
 21
4.73523622047244
 31
0.0
  0
LINE
  5
2B46
330
1E
100
AcDbEntity
  8
7
100
AcDbLine
 10
0.7578740157480316
 20
5.401574803149605
 30
0.0
 11
0.7568897637795277
 21
5.368110236220472
 31
0.0
  0
LINE
  5
2B47
330
1E
100
AcDbEntity
  8
7
100
AcDbLine
 10
0.7568897637795277
 20
5.368110236220472
 30
0.0
 11
0.7568897637795277
 21
5.367125984251968
 31
0.0
  0
LINE
  5
2B48
330
1E
100
AcDbEntity
  8
7
100
AcDbLine
 10
0.7608267716535435
 20
4.673228346456692
 30
0.0
 11
0.7608267716535435
 21
5.309055118110236
 31
0.0
  0
LINE
  5
2B49
330
1E
100
AcDbEntity
  8
7
100
AcDbLine
 10
0.7608267716535435
 20
5.309055118110236
 30
0.0
 11
0.7588582677165356
 21
5.436023622047243
 31
0.0
  0
LINE
  5
2B4A
330
1E
100
AcDbEntity
  8
7
100
AcDbLine
 10
0.7588582677165356
 20
5.436023622047243
 30
0.0
 11
0.7578740157480316
 21
5.437007874015747
 31
0.0
  0
LINE
  5
2B4B
330
1E
100
AcDbEntity
  8
7
100
AcDbLine
 10
1.330708661417323
 20
5.309055118110236
 30
0.0
 11
1.330708661417323
 21
4.673228346456692
 31
0.0
  0
LINE
  5
2B4C
330
1E
100
AcDbEntity
  8
7
100
AcDbLine
 10
1.330708661417323
 20
4.673228346456692
 30
0.0
 11
1.333661417322834
 21
4.666338582677164
 31
0.0
  0
LINE
  5
2B4D
330
1E
100
AcDbEntity
  8
7
100
AcDbLine
 10
1.334645669291338
 20
4.73523622047244
 30
0.0
 11
1.331692913385826
 21
4.738188976377952
 31
0.0
  0
LINE
  5
2B4E
330
1E
100
AcDbEntity
  8
7
100
AcDbLine
 10
1.331692913385826
 20
4.738188976377952
 30
0.0
 11
1.331692913385826
 21
5.278543307086613
 31
0.0
  0
LINE
  5
2B4F
330
1E
100
AcDbEntity
  8
7
100
AcDbLine
 10
1.331692913385826
 20
5.278543307086613
 30
0.0
 11
1.331692913385826
 21
5.283464566929133
 31
0.0
  0
LINE
  5
2B50
330
1E
100
AcDbEntity
  8
7
100
AcDbLine
 10
1.331692913385826
 20
5.283464566929133
 30
0.0
 11
1.332677165354331
 21
5.366141732283463
 31
0.0
  0
LINE
  5
2B51
330
1E
100
AcDbEntity
  8
7
100
AcDbLine
 10
1.332677165354331
 20
5.366141732283463
 30
0.0
 11
1.334645669291338
 21
5.367125984251968
 31
0.0
  0
LINE
  5
2B52
330
1E
100
AcDbEntity
  8
3
100
AcDbLine
 10
3.332677165354331
 20
4.839566929133857
 30
0.0
 11
3.332677165354331
 21
4.844488188976377
 31
0.0
  0
LINE
  5
2B53
330
1E
100
AcDbEntity
  8
3
100
AcDbLine
 10
3.332677165354331
 20
4.844488188976377
 30
0.0
 11
3.332677165354331
 21
4.856299212598425
 31
0.0
  0
LINE
  5
2B54
330
1E
100
AcDbEntity
  8
3
100
AcDbLine
 10
3.332677165354331
 20
4.856299212598425
 30
0.0
 11
3.332677165354331
 21
4.875984251968503
 31
0.0
  0
LINE
  5
2B55
330
1E
100
AcDbEntity
  8
3
100
AcDbLine
 10
3.332677165354331
 20
4.875984251968503
 30
0.0
 11
3.332677165354331
 21
4.90255905511811
 31
0.0
  0
LINE
  5
2B56
330
1E
100
AcDbEntity
  8
3
100
AcDbLine
 10
3.332677165354331
 20
4.90255905511811
 30
0.0
 11
3.332677165354331
 21
4.935039370078739
 31
0.0
  0
LINE
  5
2B57
330
1E
100
AcDbEntity
  8
3
100
AcDbLine
 10
3.332677165354331
 20
4.935039370078739
 30
0.0
 11
3.332677165354331
 21
4.971456692913385
 31
0.0
  0
LINE
  5
2B58
330
1E
100
AcDbEntity
  8
3
100
AcDbLine
 10
3.332677165354331
 20
4.971456692913385
 30
0.0
 11
3.332677165354331
 21
5.009842519685038
 31
0.0
  0
LINE
  5
2B59
330
1E
100
AcDbEntity
  8
3
100
AcDbLine
 10
3.332677165354331
 20
5.009842519685038
 30
0.0
 11
3.332677165354331
 21
5.0501968503937
 31
0.0
  0
LINE
  5
2B5A
330
1E
100
AcDbEntity
  8
3
100
AcDbLine
 10
3.332677165354331
 20
5.0501968503937
 30
0.0
 11
3.332677165354331
 21
5.088582677165353
 31
0.0
  0
LINE
  5
2B5B
330
1E
100
AcDbEntity
  8
3
100
AcDbLine
 10
3.332677165354331
 20
5.088582677165353
 30
0.0
 11
3.332677165354331
 21
5.125
 31
0.0
  0
LINE
  5
2B5C
330
1E
100
AcDbEntity
  8
3
100
AcDbLine
 10
3.332677165354331
 20
5.125
 30
0.0
 11
3.332677165354331
 21
5.157480314960629
 31
0.0
  0
LINE
  5
2B5D
330
1E
100
AcDbEntity
  8
3
100
AcDbLine
 10
3.332677165354331
 20
5.157480314960629
 30
0.0
 11
3.332677165354331
 21
5.184055118110236
 31
0.0
  0
LINE
  5
2B5E
330
1E
100
AcDbEntity
  8
3
100
AcDbLine
 10
3.332677165354331
 20
5.184055118110236
 30
0.0
 11
3.332677165354331
 21
5.203740157480314
 31
0.0
  0
LINE
  5
2B5F
330
1E
100
AcDbEntity
  8
3
100
AcDbLine
 10
3.332677165354331
 20
5.203740157480314
 30
0.0
 11
3.332677165354331
 21
5.215551181102362
 31
0.0
  0
LINE
  5
2B60
330
1E
100
AcDbEntity
  8
3
100
AcDbLine
 10
3.332677165354331
 20
5.215551181102362
 30
0.0
 11
3.332677165354331
 21
5.220472440944881
 31
0.0
  0
LINE
  5
2B61
330
1E
100
AcDbEntity
  8
3
100
AcDbLine
 10
2.989173228346457
 20
4.932086614173227
 30
0.0
 11
2.989173228346457
 21
4.937007874015747
 31
0.0
  0
LINE
  5
2B62
330
1E
100
AcDbEntity
  8
3
100
AcDbLine
 10
2.989173228346457
 20
4.937007874015747
 30
0.0
 11
2.989173228346457
 21
4.950787401574802
 31
0.0
  0
LINE
  5
2B63
330
1E
100
AcDbEntity
  8
3
100
AcDbLine
 10
2.989173228346457
 20
4.950787401574802
 30
0.0
 11
2.989173228346457
 21
4.972440944881888
 31
0.0
  0
LINE
  5
2B64
330
1E
100
AcDbEntity
  8
3
100
AcDbLine
 10
2.989173228346457
 20
4.972440944881888
 30
0.0
 11
2.989173228346457
 21
5.0
 31
0.0
  0
LINE
  5
2B65
330
1E
100
AcDbEntity
  8
3
100
AcDbLine
 10
2.989173228346457
 20
5.0
 30
0.0
 11
2.989173228346457
 21
5.030511811023621
 31
0.0
  0
LINE
  5
2B66
330
1E
100
AcDbEntity
  8
3
100
AcDbLine
 10
2.989173228346457
 20
5.030511811023621
 30
0.0
 11
2.989173228346457
 21
5.060039370078739
 31
0.0
  0
LINE
  5
2B67
330
1E
100
AcDbEntity
  8
3
100
AcDbLine
 10
2.989173228346457
 20
5.060039370078739
 30
0.0
 11
2.989173228346457
 21
5.08759842519685
 31
0.0
  0
LINE
  5
2B68
330
1E
100
AcDbEntity
  8
3
100
AcDbLine
 10
2.989173228346457
 20
5.08759842519685
 30
0.0
 11
2.989173228346457
 21
5.109251968503937
 31
0.0
  0
LINE
  5
2B69
330
1E
100
AcDbEntity
  8
3
100
AcDbLine
 10
2.989173228346457
 20
5.109251968503937
 30
0.0
 11
2.989173228346457
 21
5.123031496062991
 31
0.0
  0
LINE
  5
2B6A
330
1E
100
AcDbEntity
  8
3
100
AcDbLine
 10
2.989173228346457
 20
5.123031496062991
 30
0.0
 11
2.989173228346457
 21
5.127952755905511
 31
0.0
  0
LINE
  5
2B6B
330
1E
100
AcDbEntity
  8
3
100
AcDbLine
 10
3.051181102362204
 20
4.93011811023622
 30
0.0
 11
3.051181102362204
 21
4.904527559055117
 31
0.0
  0
LINE
  5
2B6C
330
1E
100
AcDbEntity
  8
3
100
AcDbLine
 10
3.051181102362204
 20
4.904527559055117
 30
0.0
 11
3.051181102362204
 21
4.885826771653542
 31
0.0
  0
LINE
  5
2B6D
330
1E
100
AcDbEntity
  8
3
100
AcDbLine
 10
3.051181102362204
 20
4.885826771653542
 30
0.0
 11
3.051181102362204
 21
4.874015748031495
 31
0.0
  0
LINE
  5
2B6E
330
1E
100
AcDbEntity
  8
3
100
AcDbLine
 10
3.051181102362204
 20
4.874015748031495
 30
0.0
 11
3.051181102362204
 21
4.870078740157479
 31
0.0
  0
LINE
  5
2B6F
330
1E
100
AcDbEntity
  8
3
100
AcDbLine
 10
3.051181102362204
 20
5.189960629921259
 30
0.0
 11
3.051181102362204
 21
5.186023622047243
 31
0.0
  0
LINE
  5
2B70
330
1E
100
AcDbEntity
  8
3
100
AcDbLine
 10
3.051181102362204
 20
5.186023622047243
 30
0.0
 11
3.051181102362204
 21
5.174212598425196
 31
0.0
  0
LINE
  5
2B71
330
1E
100
AcDbEntity
  8
3
100
AcDbLine
 10
3.051181102362204
 20
5.174212598425196
 30
0.0
 11
3.051181102362204
 21
5.155511811023621
 31
0.0
  0
LINE
  5
2B72
330
1E
100
AcDbEntity
  8
3
100
AcDbLine
 10
3.051181102362204
 20
5.155511811023621
 30
0.0
 11
3.051181102362204
 21
5.129921259842519
 31
0.0
  0
LINE
  5
2B73
330
1E
100
AcDbEntity
  8
3
100
AcDbLine
 10
3.051181102362204
 20
5.129921259842519
 30
0.0
 11
3.051181102362204
 21
5.099409448818897
 31
0.0
  0
LINE
  5
2B74
330
1E
100
AcDbEntity
  8
3
100
AcDbLine
 10
3.051181102362204
 20
5.099409448818897
 30
0.0
 11
3.051181102362204
 21
5.065944881889762
 31
0.0
  0
LINE
  5
2B75
330
1E
100
AcDbEntity
  8
3
100
AcDbLine
 10
3.051181102362204
 20
5.065944881889762
 30
0.0
 11
3.051181102362204
 21
5.030511811023621
 31
0.0
  0
LINE
  5
2B76
330
1E
100
AcDbEntity
  8
3
100
AcDbLine
 10
3.051181102362204
 20
5.030511811023621
 30
0.0
 11
3.051181102362204
 21
4.994094488188975
 31
0.0
  0
LINE
  5
2B77
330
1E
100
AcDbEntity
  8
3
100
AcDbLine
 10
3.051181102362204
 20
4.994094488188975
 30
0.0
 11
3.051181102362204
 21
4.960629921259841
 31
0.0
  0
LINE
  5
2B78
330
1E
100
AcDbEntity
  8
3
100
AcDbLine
 10
3.051181102362204
 20
4.960629921259841
 30
0.0
 11
3.051181102362204
 21
4.93011811023622
 31
0.0
  0
LINE
  5
2B79
330
1E
100
AcDbEntity
  8
3
100
AcDbLine
 10
3.617125984251968
 20
4.826771653543306
 30
0.0
 11
3.617125984251968
 21
4.830708661417322
 31
0.0
  0
LINE
  5
2B7A
330
1E
100
AcDbEntity
  8
3
100
AcDbLine
 10
3.617125984251968
 20
4.830708661417322
 30
0.0
 11
3.617125984251968
 21
4.843503937007873
 31
0.0
  0
LINE
  5
2B7B
330
1E
100
AcDbEntity
  8
3
100
AcDbLine
 10
3.617125984251968
 20
4.843503937007873
 30
0.0
 11
3.617125984251968
 21
4.862204724409448
 31
0.0
  0
LINE
  5
2B7C
330
1E
100
AcDbEntity
  8
3
100
AcDbLine
 10
3.617125984251968
 20
4.862204724409448
 30
0.0
 11
3.617125984251968
 21
4.888779527559054
 31
0.0
  0
LINE
  5
2B7D
330
1E
100
AcDbEntity
  8
3
100
AcDbLine
 10
3.617125984251968
 20
4.888779527559054
 30
0.0
 11
3.617125984251968
 21
4.921259842519684
 31
0.0
  0
LINE
  5
2B7E
330
1E
100
AcDbEntity
  8
3
100
AcDbLine
 10
3.617125984251968
 20
4.921259842519684
 30
0.0
 11
3.617125984251968
 21
4.9251968503937
 31
0.0
  0
LINE
  5
2B7F
330
1E
100
AcDbEntity
  8
3
100
AcDbLine
 10
3.617125984251968
 20
4.9251968503937
 30
0.0
 11
3.617125984251968
 21
4.937992125984251
 31
0.0
  0
LINE
  5
2B80
330
1E
100
AcDbEntity
  8
3
100
AcDbLine
 10
3.617125984251968
 20
4.937992125984251
 30
0.0
 11
3.617125984251968
 21
4.958661417322834
 31
0.0
  0
LINE
  5
2B81
330
1E
100
AcDbEntity
  8
3
100
AcDbLine
 10
3.617125984251968
 20
4.958661417322834
 30
0.0
 11
3.617125984251968
 21
4.98523622047244
 31
0.0
  0
LINE
  5
2B82
330
1E
100
AcDbEntity
  8
3
100
AcDbLine
 10
3.617125984251968
 20
4.98523622047244
 30
0.0
 11
3.617125984251968
 21
5.014763779527558
 31
0.0
  0
LINE
  5
2B83
330
1E
100
AcDbEntity
  8
3
100
AcDbLine
 10
3.617125984251968
 20
5.014763779527558
 30
0.0
 11
3.617125984251968
 21
5.04527559055118
 31
0.0
  0
LINE
  5
2B84
330
1E
100
AcDbEntity
  8
3
100
AcDbLine
 10
3.617125984251968
 20
5.04527559055118
 30
0.0
 11
3.617125984251968
 21
5.075787401574802
 31
0.0
  0
LINE
  5
2B85
330
1E
100
AcDbEntity
  8
3
100
AcDbLine
 10
3.617125984251968
 20
5.075787401574802
 30
0.0
 11
3.617125984251968
 21
5.101377952755904
 31
0.0
  0
LINE
  5
2B86
330
1E
100
AcDbEntity
  8
3
100
AcDbLine
 10
3.617125984251968
 20
5.101377952755904
 30
0.0
 11
3.617125984251968
 21
5.122047244094487
 31
0.0
  0
LINE
  5
2B87
330
1E
100
AcDbEntity
  8
3
100
AcDbLine
 10
3.617125984251968
 20
5.122047244094487
 30
0.0
 11
3.617125984251968
 21
5.134842519685038
 31
0.0
  0
LINE
  5
2B88
330
1E
100
AcDbEntity
  8
3
100
AcDbLine
 10
3.617125984251968
 20
5.134842519685038
 30
0.0
 11
3.617125984251968
 21
5.138779527559054
 31
0.0
  0
LINE
  5
2B89
330
1E
100
AcDbEntity
  8
3
100
AcDbLine
 10
3.617125984251968
 20
5.138779527559054
 30
0.0
 11
3.617125984251968
 21
5.171259842519684
 31
0.0
  0
LINE
  5
2B8A
330
1E
100
AcDbEntity
  8
3
100
AcDbLine
 10
3.617125984251968
 20
5.171259842519684
 30
0.0
 11
3.617125984251968
 21
5.19783464566929
 31
0.0
  0
LINE
  5
2B8B
330
1E
100
AcDbEntity
  8
3
100
AcDbLine
 10
3.617125984251968
 20
5.19783464566929
 30
0.0
 11
3.617125984251968
 21
5.216535433070865
 31
0.0
  0
LINE
  5
2B8C
330
1E
100
AcDbEntity
  8
3
100
AcDbLine
 10
3.617125984251968
 20
5.216535433070865
 30
0.0
 11
3.617125984251968
 21
5.229330708661416
 31
0.0
  0
LINE
  5
2B8D
330
1E
100
AcDbEntity
  8
3
100
AcDbLine
 10
3.617125984251968
 20
5.229330708661416
 30
0.0
 11
3.617125984251968
 21
5.233267716535432
 31
0.0
  0
LINE
  5
2B8E
330
1E
100
AcDbEntity
  8
3
100
AcDbLine
 10
3.602362204724409
 20
4.826771653543306
 30
0.0
 11
3.602362204724409
 21
4.830708661417322
 31
0.0
  0
LINE
  5
2B8F
330
1E
100
AcDbEntity
  8
3
100
AcDbLine
 10
3.602362204724409
 20
4.830708661417322
 30
0.0
 11
3.602362204724409
 21
4.843503937007873
 31
0.0
  0
LINE
  5
2B90
330
1E
100
AcDbEntity
  8
3
100
AcDbLine
 10
3.602362204724409
 20
4.843503937007873
 30
0.0
 11
3.602362204724409
 21
4.862204724409448
 31
0.0
  0
LINE
  5
2B91
330
1E
100
AcDbEntity
  8
3
100
AcDbLine
 10
3.602362204724409
 20
4.862204724409448
 30
0.0
 11
3.602362204724409
 21
4.888779527559054
 31
0.0
  0
LINE
  5
2B92
330
1E
100
AcDbEntity
  8
3
100
AcDbLine
 10
3.602362204724409
 20
4.888779527559054
 30
0.0
 11
3.602362204724409
 21
4.921259842519684
 31
0.0
  0
LINE
  5
2B93
330
1E
100
AcDbEntity
  8
3
100
AcDbLine
 10
3.602362204724409
 20
5.171259842519684
 30
0.0
 11
3.602362204724409
 21
5.19783464566929
 31
0.0
  0
LINE
  5
2B94
330
1E
100
AcDbEntity
  8
3
100
AcDbLine
 10
3.602362204724409
 20
5.19783464566929
 30
0.0
 11
3.602362204724409
 21
5.216535433070865
 31
0.0
  0
LINE
  5
2B95
330
1E
100
AcDbEntity
  8
3
100
AcDbLine
 10
3.602362204724409
 20
5.216535433070865
 30
0.0
 11
3.602362204724409
 21
5.229330708661416
 31
0.0
  0
LINE
  5
2B96
330
1E
100
AcDbEntity
  8
3
100
AcDbLine
 10
3.602362204724409
 20
5.229330708661416
 30
0.0
 11
3.602362204724409
 21
5.233267716535432
 31
0.0
  0
LINE
  5
2B97
330
1E
100
AcDbEntity
  8
3
100
AcDbLine
 10
3.602362204724409
 20
4.921259842519684
 30
0.0
 11
3.602362204724409
 21
4.9251968503937
 31
0.0
  0
LINE
  5
2B98
330
1E
100
AcDbEntity
  8
3
100
AcDbLine
 10
3.602362204724409
 20
4.9251968503937
 30
0.0
 11
3.602362204724409
 21
4.937992125984251
 31
0.0
  0
LINE
  5
2B99
330
1E
100
AcDbEntity
  8
3
100
AcDbLine
 10
3.602362204724409
 20
4.937992125984251
 30
0.0
 11
3.602362204724409
 21
4.958661417322834
 31
0.0
  0
LINE
  5
2B9A
330
1E
100
AcDbEntity
  8
3
100
AcDbLine
 10
3.602362204724409
 20
4.958661417322834
 30
0.0
 11
3.602362204724409
 21
4.98523622047244
 31
0.0
  0
LINE
  5
2B9B
330
1E
100
AcDbEntity
  8
3
100
AcDbLine
 10
3.602362204724409
 20
4.98523622047244
 30
0.0
 11
3.602362204724409
 21
5.014763779527558
 31
0.0
  0
LINE
  5
2B9C
330
1E
100
AcDbEntity
  8
3
100
AcDbLine
 10
3.602362204724409
 20
5.014763779527558
 30
0.0
 11
3.602362204724409
 21
5.04527559055118
 31
0.0
  0
LINE
  5
2B9D
330
1E
100
AcDbEntity
  8
3
100
AcDbLine
 10
3.602362204724409
 20
5.04527559055118
 30
0.0
 11
3.602362204724409
 21
5.075787401574802
 31
0.0
  0
LINE
  5
2B9E
330
1E
100
AcDbEntity
  8
3
100
AcDbLine
 10
3.602362204724409
 20
5.075787401574802
 30
0.0
 11
3.602362204724409
 21
5.101377952755904
 31
0.0
  0
LINE
  5
2B9F
330
1E
100
AcDbEntity
  8
3
100
AcDbLine
 10
3.602362204724409
 20
5.101377952755904
 30
0.0
 11
3.602362204724409
 21
5.122047244094487
 31
0.0
  0
LINE
  5
2BA0
330
1E
100
AcDbEntity
  8
3
100
AcDbLine
 10
3.602362204724409
 20
5.122047244094487
 30
0.0
 11
3.602362204724409
 21
5.134842519685038
 31
0.0
  0
LINE
  5
2BA1
330
1E
100
AcDbEntity
  8
3
100
AcDbLine
 10
3.602362204724409
 20
5.134842519685038
 30
0.0
 11
3.602362204724409
 21
5.138779527559054
 31
0.0
  0
LINE
  5
2BA2
330
1E
100
AcDbEntity
  8
3
100
AcDbLine
 10
3.602362204724409
 20
5.138779527559054
 30
0.0
 11
3.602362204724409
 21
5.171259842519684
 31
0.0
  0
LINE
  5
2BA3
330
1E
100
AcDbEntity
  8
3
100
AcDbLine
 10
3.644685039370079
 20
4.842519685039369
 30
0.0
 11
3.635826771653543
 21
4.845472440944881
 31
0.0
  0
LINE
  5
2BA4
330
1E
100
AcDbEntity
  8
3
100
AcDbLine
 10
3.635826771653543
 20
4.845472440944881
 30
0.0
 11
3.629921259842519
 21
4.848425196850393
 31
0.0
  0
LINE
  5
2BA5
330
1E
100
AcDbEntity
  8
3
100
AcDbLine
 10
3.629921259842519
 20
4.848425196850393
 30
0.0
 11
3.623031496062992
 21
4.855314960629921
 31
0.0
  0
LINE
  5
2BA6
330
1E
100
AcDbEntity
  8
3
100
AcDbLine
 10
3.623031496062992
 20
4.855314960629921
 30
0.0
 11
3.619094488188976
 21
4.864173228346456
 31
0.0
  0
LINE
  5
2BA7
330
1E
100
AcDbEntity
  8
3
100
AcDbLine
 10
3.619094488188976
 20
4.864173228346456
 30
0.0
 11
3.617125984251968
 21
4.873031496062991
 31
0.0
  0
LINE
  5
2BA8
330
1E
100
AcDbEntity
  8
3
100
AcDbLine
 10
3.677165354330708
 20
4.873031496062991
 30
0.0
 11
3.676181102362205
 21
4.864173228346456
 31
0.0
  0
LINE
  5
2BA9
330
1E
100
AcDbEntity
  8
3
100
AcDbLine
 10
3.676181102362205
 20
4.864173228346456
 30
0.0
 11
3.671259842519684
 21
4.855314960629921
 31
0.0
  0
LINE
  5
2BAA
330
1E
100
AcDbEntity
  8
3
100
AcDbLine
 10
3.671259842519684
 20
4.855314960629921
 30
0.0
 11
3.664370078740157
 21
4.847440944881888
 31
0.0
  0
LINE
  5
2BAB
330
1E
100
AcDbEntity
  8
3
100
AcDbLine
 10
3.664370078740157
 20
4.847440944881888
 30
0.0
 11
3.654527559055118
 21
4.843503937007873
 31
0.0
  0
LINE
  5
2BAC
330
1E
100
AcDbEntity
  8
3
100
AcDbLine
 10
3.654527559055118
 20
4.843503937007873
 30
0.0
 11
3.644685039370079
 21
4.842519685039369
 31
0.0
  0
LINE
  5
2BAD
330
1E
100
AcDbEntity
  8
3
100
AcDbLine
 10
3.677165354330708
 20
4.813976377952755
 30
0.0
 11
3.677165354330708
 21
4.922244094488188
 31
0.0
  0
LINE
  5
2BAE
330
1E
100
AcDbEntity
  8
3
100
AcDbLine
 10
3.677165354330708
 20
4.922244094488188
 30
0.0
 11
3.677165354330708
 21
5.13779527559055
 31
0.0
  0
LINE
  5
2BAF
330
1E
100
AcDbEntity
  8
3
100
AcDbLine
 10
3.677165354330708
 20
5.13779527559055
 30
0.0
 11
3.677165354330708
 21
5.246062992125984
 31
0.0
  0
LINE
  5
2BB0
330
1E
100
AcDbEntity
  8
7
100
AcDbLine
 10
3.65748031496063
 20
5.44783464566929
 30
0.0
 11
3.65748031496063
 21
5.488188976377952
 31
0.0
  0
LINE
  5
2BB1
330
1E
100
AcDbEntity
  8
7
100
AcDbLine
 10
3.65748031496063
 20
5.488188976377952
 30
0.0
 11
3.581692913385826
 21
5.445866141732283
 31
0.0
  0
LINE
  5
2BB2
330
1E
100
AcDbEntity
  8
7
100
AcDbLine
 10
3.803149606299212
 20
5.377952755905511
 30
0.0
 11
4.123031496062991
 21
5.380905511811023
 31
0.0
  0
LINE
  5
2BB3
330
1E
100
AcDbEntity
  8
7
100
AcDbLine
 10
4.123031496062991
 20
5.380905511811023
 30
0.0
 11
4.123031496062991
 21
5.443897637795275
 31
0.0
  0
LINE
  5
2BB4
330
1E
100
AcDbEntity
  8
7
100
AcDbLine
 10
3.721456692913385
 20
5.446850393700787
 30
0.0
 11
3.721456692913385
 21
5.411417322834645
 31
0.0
  0
LINE
  5
2BB5
330
1E
100
AcDbEntity
  8
7
100
AcDbLine
 10
3.721456692913385
 20
5.411417322834645
 30
0.0
 11
3.755905511811023
 21
5.377952755905511
 31
0.0
  0
LINE
  5
2BB6
330
1E
100
AcDbEntity
  8
7
100
AcDbLine
 10
3.59744094488189
 20
4.780511811023621
 30
0.0
 11
3.59744094488189
 21
4.798228346456692
 31
0.0
  0
LINE
  5
2BB7
330
1E
100
AcDbEntity
  8
7
100
AcDbLine
 10
3.59744094488189
 20
4.798228346456692
 30
0.0
 11
3.59744094488189
 21
4.823818897637794
 31
0.0
  0
LINE
  5
2BB8
330
1E
100
AcDbEntity
  8
7
100
AcDbLine
 10
3.59744094488189
 20
4.823818897637794
 30
0.0
 11
3.59744094488189
 21
4.855314960629921
 31
0.0
  0
LINE
  5
2BB9
330
1E
100
AcDbEntity
  8
7
100
AcDbLine
 10
3.59744094488189
 20
4.855314960629921
 30
0.0
 11
3.59744094488189
 21
4.893700787401574
 31
0.0
  0
LINE
  5
2BBA
330
1E
100
AcDbEntity
  8
7
100
AcDbLine
 10
3.59744094488189
 20
4.893700787401574
 30
0.0
 11
3.59744094488189
 21
4.937007874015747
 31
0.0
  0
LINE
  5
2BBB
330
1E
100
AcDbEntity
  8
7
100
AcDbLine
 10
3.59744094488189
 20
4.937007874015747
 30
0.0
 11
3.59744094488189
 21
4.982283464566928
 31
0.0
  0
LINE
  5
2BBC
330
1E
100
AcDbEntity
  8
7
100
AcDbLine
 10
3.59744094488189
 20
4.982283464566928
 30
0.0
 11
3.59744094488189
 21
5.030511811023621
 31
0.0
  0
LINE
  5
2BBD
330
1E
100
AcDbEntity
  8
7
100
AcDbLine
 10
3.59744094488189
 20
5.030511811023621
 30
0.0
 11
3.59744094488189
 21
5.07775590551181
 31
0.0
  0
LINE
  5
2BBE
330
1E
100
AcDbEntity
  8
7
100
AcDbLine
 10
3.59744094488189
 20
5.07775590551181
 30
0.0
 11
3.59744094488189
 21
5.123031496062991
 31
0.0
  0
LINE
  5
2BBF
330
1E
100
AcDbEntity
  8
7
100
AcDbLine
 10
3.59744094488189
 20
5.123031496062991
 30
0.0
 11
3.59744094488189
 21
5.166338582677164
 31
0.0
  0
LINE
  5
2BC0
330
1E
100
AcDbEntity
  8
7
100
AcDbLine
 10
3.59744094488189
 20
5.166338582677164
 30
0.0
 11
3.59744094488189
 21
5.204724409448818
 31
0.0
  0
LINE
  5
2BC1
330
1E
100
AcDbEntity
  8
7
100
AcDbLine
 10
3.59744094488189
 20
5.204724409448818
 30
0.0
 11
3.59744094488189
 21
5.236220472440944
 31
0.0
  0
LINE
  5
2BC2
330
1E
100
AcDbEntity
  8
7
100
AcDbLine
 10
3.59744094488189
 20
5.236220472440944
 30
0.0
 11
3.59744094488189
 21
5.261811023622047
 31
0.0
  0
LINE
  5
2BC3
330
1E
100
AcDbEntity
  8
7
100
AcDbLine
 10
3.59744094488189
 20
5.261811023622047
 30
0.0
 11
3.59744094488189
 21
5.279527559055117
 31
0.0
  0
LINE
  5
2BC4
330
1E
100
AcDbEntity
  8
7
100
AcDbLine
 10
3.721456692913385
 20
4.745078740157479
 30
0.0
 11
3.803149606299212
 21
4.745078740157479
 31
0.0
  0
LINE
  5
2BC5
330
1E
100
AcDbEntity
  8
7
100
AcDbLine
 10
3.803149606299212
 20
4.745078740157479
 30
0.0
 11
3.803149606299212
 21
4.677165354330708
 31
0.0
  0
LINE
  5
2BC6
330
1E
100
AcDbEntity
  8
7
100
AcDbLine
 10
3.33759842519685
 20
5.318897637795275
 30
0.0
 11
3.33759842519685
 21
4.683070866141731
 31
0.0
  0
LINE
  5
2BC7
330
1E
100
AcDbEntity
  8
7
100
AcDbLine
 10
3.33759842519685
 20
4.683070866141731
 30
0.0
 11
3.721456692913385
 21
4.676181102362204
 31
0.0
  0
LINE
  5
2BC8
330
1E
100
AcDbEntity
  8
7
100
AcDbLine
 10
3.762795275590551
 20
4.745078740157479
 30
0.0
 11
3.43503937007874
 21
4.748031496062991
 31
0.0
  0
LINE
  5
2BC9
330
1E
100
AcDbEntity
  8
7
100
AcDbLine
 10
3.43503937007874
 20
4.748031496062991
 30
0.0
 11
3.43503937007874
 21
5.289370078740157
 31
0.0
  0
LINE
  5
2BCA
330
1E
100
AcDbEntity
  8
7
100
AcDbLine
 10
3.43503937007874
 20
5.289370078740157
 30
0.0
 11
3.437992125984252
 21
5.293307086614173
 31
0.0
  0
LINE
  5
2BCB
330
1E
100
AcDbEntity
  8
7
100
AcDbLine
 10
3.437992125984252
 20
5.293307086614173
 30
0.0
 11
3.585629921259842
 21
5.375984251968503
 31
0.0
  0
LINE
  5
2BCC
330
1E
100
AcDbEntity
  8
7
100
AcDbLine
 10
3.585629921259842
 20
5.375984251968503
 30
0.0
 11
3.779527559055118
 21
5.376968503937007
 31
0.0
  0
LINE
  5
2BCD
330
1E
100
AcDbEntity
  8
3
100
AcDbLine
 10
3.006889763779527
 20
5.172244094488188
 30
0.0
 11
2.994094488188976
 21
5.151574803149605
 31
0.0
  0
LINE
  5
2BCE
330
1E
100
AcDbEntity
  8
3
100
AcDbLine
 10
2.994094488188976
 20
5.151574803149605
 30
0.0
 11
2.989173228346457
 21
5.127952755905511
 31
0.0
  0
LINE
  5
2BCF
330
1E
100
AcDbEntity
  8
3
100
AcDbLine
 10
3.051181102362204
 20
5.189960629921259
 30
0.0
 11
3.02755905511811
 21
5.185039370078739
 31
0.0
  0
LINE
  5
2BD0
330
1E
100
AcDbEntity
  8
3
100
AcDbLine
 10
3.02755905511811
 20
5.185039370078739
 30
0.0
 11
3.006889763779527
 21
5.172244094488188
 31
0.0
  0
LINE
  5
2BD1
330
1E
100
AcDbEntity
  8
3
100
AcDbLine
 10
2.989173228346457
 20
4.932086614173227
 30
0.0
 11
2.994094488188976
 21
4.908464566929133
 31
0.0
  0
LINE
  5
2BD2
330
1E
100
AcDbEntity
  8
3
100
AcDbLine
 10
2.994094488188976
 20
4.908464566929133
 30
0.0
 11
3.006889763779527
 21
4.88779527559055
 31
0.0
  0
LINE
  5
2BD3
330
1E
100
AcDbEntity
  8
3
100
AcDbLine
 10
3.006889763779527
 20
4.88779527559055
 30
0.0
 11
3.02755905511811
 21
4.875
 31
0.0
  0
LINE
  5
2BD4
330
1E
100
AcDbEntity
  8
3
100
AcDbLine
 10
3.02755905511811
 20
4.875
 30
0.0
 11
3.051181102362204
 21
4.870078740157479
 31
0.0
  0
LINE
  5
2BD5
330
1E
100
AcDbEntity
  8
3
100
AcDbLine
 10
3.677165354330708
 20
5.189960629921259
 30
0.0
 11
3.673228346456693
 21
5.204724409448818
 31
0.0
  0
LINE
  5
2BD6
330
1E
100
AcDbEntity
  8
3
100
AcDbLine
 10
3.673228346456693
 20
5.204724409448818
 30
0.0
 11
3.662401574803149
 21
5.215551181102362
 31
0.0
  0
LINE
  5
2BD7
330
1E
100
AcDbEntity
  8
3
100
AcDbLine
 10
3.662401574803149
 20
5.215551181102362
 30
0.0
 11
3.64763779527559
 21
5.219488188976377
 31
0.0
  0
LINE
  5
2BD8
330
1E
100
AcDbEntity
  8
3
100
AcDbLine
 10
3.64763779527559
 20
5.219488188976377
 30
0.0
 11
3.632874015748031
 21
5.215551181102362
 31
0.0
  0
LINE
  5
2BD9
330
1E
100
AcDbEntity
  8
3
100
AcDbLine
 10
3.632874015748031
 20
5.215551181102362
 30
0.0
 11
3.622047244094488
 21
5.204724409448818
 31
0.0
  0
ENDSEC
  0
SECTION
  2
OBJECTS
  0
DICTIONARY
  5
C
330
0
100
AcDbDictionary
  3
ACAD_GROUP
350
D
  3
ACAD_LAYOUT
350
19
  3
ACAD_MLINESTYLE
350
16
  3
ACAD_PLOTSETTINGS
350
18
1001
ACAD
1000
TREAT_AS_HARD
1070
     0
  0
DICTIONARY
  5
3ACF
330
1E
100
AcDbDictionary
  3
ACAD_LAYOUTSELFREF
350
3B07
1001
ACAD
1000
TREAT_AS_HARD
1070
     1
  0
DICTIONARY
  5
3AD1
330
1A
100
AcDbDictionary
  3
ACAD_LAYOUTSELFREF
350
3B06
1001
ACAD
1000
TREAT_AS_HARD
1070
     1
  0
DICTIONARY
  5
D
102
{ACAD_REACTORS
330
C
102
}
330
C
100
AcDbDictionary
1001
ACAD
1000
TREAT_AS_HARD
1070
     0
  0
DICTIONARY
  5
19
102
{ACAD_REACTORS
330
C
102
}
330
C
100
AcDbDictionary
1001
ACAD
1000
TREAT_AS_HARD
1070
     0
  0
DICTIONARY
  5
16
102
{ACAD_REACTORS
330
C
102
}
330
C
100
AcDbDictionary
  3
STANDARD
350
17
1001
ACAD
1000
TREAT_AS_HARD
1070
     0
  0
DICTIONARY
  5
18
102
{ACAD_REACTORS
330
C
102
}
330
C
100
AcDbDictionary
1001
ACAD
1000
TREAT_AS_HARD
1070
     0
  0
XRECORD
  5
3B07
102
{ACAD_REACTORS
330
3ACF
102
}
330
3ACF
100
AcDbXrecord
340
1E
  0
XRECORD
  5
3B06
102
{ACAD_REACTORS
330
3AD1
102
}
330
3AD1
100
AcDbXrecord
340
1A
  0
MLINESTYLE
  5
17
102
{ACAD_REACTORS
330
16
102
}
330
16
100
AcDbMlineStyle
  2
STANDARD
 70
     0
  3

 62
   256
 51
90.0
 52
90.0
 71
     2
 49
0.5
 62
   256
  6
BYLAYER
 49
-0.5
 62
   256
  6
BYLAYER
  0
ENDSEC
  0
EOF
